Mccain Edwin - Punish Me Chords & Tabs

 

Punish Me Chords & Tabs

Mccain Edwin Chords & Tabs

Version: 1 Type: Chords 0 ratings
1 star 2 stars 3 stars 4 stars 5 stars
comments

Punish Me Chords

   
##################################################################################
# This file is the author's own work and represents their interpretation of the  #
# song. You may only use this file for private study, scholarship, or research.  #
##################################################################################

Edwin McCain - Punish Me
Tabbed by Matt Cunningham

Chords: 

Dm    xx0231
Bb    xx3331
C9    x3203x
G     320033
F     133211

Intro:
[ Tab from: http://www.guitartabs.cc/tabs/m/mccain_edwin/punish_me_crd.html ]
Larry
e----------------------
b--6h8^^^^^^^^^-8/////-
g----------------------
d----------------------
a----------------------
E----------------------


Edwin     Larry
e-1---1--1-----------3----    e---------------------------------
b-3---3--3--3--------3----    b---------------------------------
g-0h2-2--3--0--------0----    g--0-2^4-0---2^4-0--0-2^4-0---0---
d-----0--3--2--------0----    d---------------------------2-----
a-----------3--3--1--2----    a---------------------------------
E--------------------3----    E---------------------------------


Chorus

e-------------1-------------3--
b------------1--------------3--
g-----------2---------------0--
d----------3----------0-----0--
a--0-2----3------2h3--------2--
E------1-1------------------3--
Comments