Mccain Edwin - I'll Be(acoustic Version) Chords & Tabs

 

I'll Be(acoustic Version) Chords & Tabs

Mccain Edwin Chords & Tabs

Version: 3 Type: Tab 0 ratings
1 star 2 stars 3 stars 4 stars 5 stars
comments

I'll Be(acoustic Version) Tab

   
##################################################################################
# This file is the author's own work and represents their interpretation of the  #
# song. You may only use this file for private study, scholarship, or research.  #
##################################################################################
[ Tab from: http://www.guitartabs.cc/tabs/m/mccain_edwin/ill_beacoustic_version_tab_ver_3.html ]
Artist: Edwin McCain  
Song: I'll Be (Acoustic Version)
Tabbed by: John Leadman
                 
                       
               
   
   CHORDS: [No bar chords, simply cover the bass string.]
   
       
   B  (799800)    E     (022100)
   E5 (079900)    G#    (466000)
   F# (244300)    Asus2 (x02200)
   
   I recommend finger picking. Use your thumb for the E, A, and
   D strings and your index, middle, and ring finger for the G, B, and
   E strings.
  
   
   
   INTRO:
   
     (B)                                   (E5)
   e|------------0------------------0-----------------0------------------0------|
   B|-------0---------0-------0----------0--------0---------0--------0--------0-|
   G|----8---------8-------8----------8--------9---------9--------9--------9----|
   D|---------9------------------9------------------9------------------9--------|
   A|---------------------------------------7------------------7----------------|
   E|-7-----------------7-------------------------------------------------------|
   
   
   RIFFS:
   
   
   RIFF 1:
        (B)                                (E5)
   E|------------0------------------0-----------------0------------------0-------
   B|-------0---------0-------0----------0--------0---------0--------0--------0--
   G|----8---------8-------8----------8--------9---------9--------9--------9-----
   D|---------9------------------9------------------9------------------9---------
   A|---------------------------------------7------------------7-----------------
   E|-7-----------------7--------------------------------------------------------
   
    (B)                                   (F#)               (E)
   E------------0------------------0-----------------0------------------0------|
   B-------0---------0-------0----------0--------0---------0--------0--------0-|
   G----8---------8-------8----------8--------3---------3--------1--------1----|
   D---------9------------------9------------------4------------------2--------|
   A---------------------------------------------------------------------------|
   E-7-----------------7-------------------2------------------0----------------|
   
   
   
   RIFF 2:
     (B)               (F#)                (E)               (F#)
   E|------------0------------------0-----------------0------------------0------|
   B|-------0---------0-------0----------0--------0---------0--------0--------0-|
   G|----8---------8-------3----------3--------1---------1--------3--------3----|
   D|---------9------------------4------------------2------------------4--------|
   A|---------------------------------------------------------------------------|
   E|-7-----------------2-------------------0-----------------2-----------------|
   
   
   
   RIFF 3:
     (B)                                   (F#)
   E|------------0------------------0-----------------0------------------0-------
   B|-------0---------0-------0----------0--------0---------0--------0--------0--
   G|----8---------8-------8----------8--------3---------3--------3--------3-----
   D|---------9------------------9------------------4------------------4---------
   A|----------------------------------------------------------------------------
   E|-7-----------------7-------------------2-----------------2------------------
   
    (E)                                   (F#)
   E------------0------------------0-----------------0------------------0------|
   B-------0---------0-------0----------0--------0---------0--------0--------0-|
   G----1---------1-------1----------1--------3---------3--------3--------3----|
   D---------2------------------2------------------4------------------4--------|
   A---------------------------------------------------------------------------|
   E-0-----------------0-------------------2------------------2----------------|
   
   
   
   RIFF 4:
     (G#m)                                  (F#)
   E|------------0------------------0-----------------0------------------0-------
   B|-------0---------0-------0----------0--------0---------0--------0--------0--
   G|----0---------0-------0----------0--------3---------3--------3--------3-----
   D|---------6------------------6------------------4------------------4---------
   A|----------------------------------------------------------------------------
   E|-4-----------------4-------------------2------------------2-----------------
   
    (E)
   E------------0------------------0----------|
   A-------0---------0-------0----------0-----|
   D----1---------1-------1----------1--------|
   G---------2------------------2-------------|
   B------------------------------------------|
   E-0-----------------0----------------------|
   
   
   
   RIFF 5:
     (Asus4)                               (F#)
   E|------------0------------------0-----------------0------------------0------|
   B|-------0---------0-------0----------0--------0---------0--------0--------0-|
   G|----2---------2-------2----------2--------3---------3--------3--------3----|
   D|---------2------------------2------------------4------------------4--------|
   A|-0-----------------0-------------------------------------------------------|
   E|---------------------------------------2------------------2----------------|
   
   
   [Ok, this should be easy to understand. On the left you see what riff
   to play, on the right you see what to sing while playing it. 
   
Comments