Mccain Edwin - I'll Be(acoustic Version) Chords & Tabs

 

I'll Be(acoustic Version) Chords & Tabs

Mccain Edwin Chords & Tabs

Version: 1 Type: Tab 0 ratings
1 star 2 stars 3 stars 4 stars 5 stars
comments

I'll Be(acoustic Version) Tab

   
##################################################################################
# This file is the author's own work and represents their interpretation of the  #
# song. You may only use this file for private study, scholarship, or research.  #
##################################################################################

******************************************************************************
Song title:  I'll Be(Acoustic Version)
Artist: Edwin McCain
Album: Messenger

Transcribed by: Huw Morgan     

January 5, 2000 (slightly revised)
******************************************************************************
Notes- I recommend finger picking. Use your thumb for the E, A, and D strings 
and your index, middle, and ring finger for the G, B, and e strings.  
Feel free to e-mail me any questions: huw_la@yahoo.com. 

Chords:
            EADGBe         *No bar chords, simply cover the bass string.
B          (799800)
A          (588700)
E5         (079900)
F#         (244300)
E          (022100)
Asus4      (x02200)

Intro:
-----
              (B)                    (A)
e|--------0-----0----------0-----0-----------0------0----------0--------------|
B|-----0-----0-----0----0-----0-----0-----0------0-----0----0-----0----0-----0|
G|---8-----8-----8----8-----8-----8-----6------6------6---6-----6----6-----6--|
D|------9-----9----------9-----9------------7-----7----------7----------------|
A|----------------------------------------------------------------------------|
E|-7----------------7-----------------5-----------------5----------5-----5----|


Rifs:
----

Rif 1
              (B)                                  (E5)
e|------------0------------------0-----------------0--------------------------
B|-------0---------0-------0----------0--------0---------0--------0--------0--
G|----8---------8-------8----------8--------9---------9--------9--------9-----
D|---------9------------------9------------------9----------------------------
A|---------------------------------------7--------------------------7---------
E|-7-----------------7--------------------------------------0-----------------

              (B)                                (F#)              (E)
  ------------0------------------0-----------------0------------------0------|
  -------0---------0-------0----------0--------0---------0--------0--------0-|
  ----8---------8-------8----------8--------3---------3--------1--------1----|
  ---------9------------------9------------------4------------------2--------|
  ---------------------------------------------------------------------------|
  -7-----------------7-------------------2------------------0----------------|
[ Tab from: http://www.guitartabs.cc/tabs/m/mccain_edwin/ill_beacoustic_version_tab.html ]
Rif 2 
            (B)             (F#)               (E)               (F#)
e|------------0------------------0-----------------0------------------0------|
B|-------0---------0-------0----------0--------0---------0--------0--------0-|
G|----8---------8-------3----------3--------1---------1--------3--------3----|
D|---------9------------------4------------------2------------------4--------|
A|---------------------------------------------------------------------------|
E|-7-----------------2-------------------0-----------------2-----------------|

Rif 3
              (B)                                  (F#)
e|------------0------------------0-----------------0------------------0-------
B|-------0---------0-------0----------0--------0---------0--------0--------0--
G|----8---------8-------8----------8--------3---------3--------3--------3-----
D|---------9------------------9------------------4------------------4---------
A|----------------------------------------------------------------------------
E|-7-----------------7-------------------2-----------------2------------------

              (E)                                  (F#)
  ------------0------------------0-----------------0------------------0------|
  -------0---------0-------0----------0--------0---------0--------0--------0-|
  ----1---------1-------1----------1--------3---------3--------3--------3----|
  ---------2------------------2------------------4------------------4--------|
  ---------------------------------------------------------------------------|
  -0-----------------0-------------------2------------------2----------------|

Rif 4

              (A)                                  (F#)
e|------------0------------------0-----------------0------------------0-------
B|-------0---------0-------0----------0--------0---------0--------0--------0--
G|----6---------6-------6----------6--------3---------3--------3--------3-----
D|---------7------------------7------------------4------------------4---------
A|----------------------------------------------------------------------------
E|-5-----------------5-------------------2------------------2-----------------

              (E)                                  
  ------------0------------------0----------|
  -------0---------0-------0----------0-----|
  ----1---------1-------1----------1--------|
  ---------2------------------2-------------|
  ------------------------------------------|
  -0-----------------0----------------------|

Rif 5
              (Asus4)                                  (F#)
e|------------0------------------0-----------------0------------------0------|
B|-------0---------0-------0----------0--------0---------0--------0--------0-|
G|----2---------2-------2----------2--------3---------3--------3--------3----|
D|---------2------------------2------------------4------------------4--------|
A|-0-----------------0-------------------------------------------------------|
E|---------------------------------------2------------------2----------------|
Comments