Mccain Edwin - I Ll Be Chords & Tabs

 

I Ll Be Chords & Tabs

Mccain Edwin Chords & Tabs

Version: 1 Type: Tab 0 ratings
1 star 2 stars 3 stars 4 stars 5 stars
comments

I Ll Be Tab

   
##################################################################################
# This file is the author's own work and represents their interpretation of the  #
# song. You may only use this file for private study, scholarship, or research.  #
##################################################################################

I’ll Be
Edwin MCcain

johnsantos_17@yahoo.com

Standard tuning (EADGBE)

  B/4 Am/9  E5  F# Emaj7
E--0---0----0---x---x-----------
B--0---0----0---7---5-----------
G--8---6----9---6---4-----------
D--9---7----9---4---6-----------
A--9---7----7---4---6-----------
E--7---5----0---6---4-----------

  Abm7 F#  E  A2  F#7/4
E--4---2---0---0---0--------
B--4---2---0---0---0--------
G--4---3---1---2---3--------
D--4---4---2---2---4--------
A--6---4---2---0---4--------
E--4---2---0-------2--------


I.INTRO:

B/4 (2x)Am/9 (2x)

E---------------0---------0---------0--|-----------0---------0--------0-----|
B--------0---0---0---------0-----------|------0--0---0---------0------------|
G----------8-------8----------8--------|--------6------6---------6----------|
D---------------------9----------9-----|-----------------7---------7--------|
A--------------------------------------|------------------------------------|
E---7-------------------7--------------|--5----------------5----------------|

II.VERSE (2x)


B/4E5
E------------0--------------0--------------------0---------------0---
B--------------0--------------0--------------------0-----------------
G--------8------8--------8-------------------9-----9---------9-------
D-----9---------------9-------------------9---------------9----------
A---------------------------------------7---------------7------------
E--7----------------7------------------------------------------------

 

B/4F#Emaj7
E------------0---------------0---------------------------------------
B--------------0---------------0---------------7--------------5------
G--------8---------------8-----------------6-----------4-------------
D-----9---------------9-----------------4-----------------6----------
A--------------------------------------------------------------------
E--7---------------7-----------------6--------------4----------------


III.PRECHORUS (3x)(fast transition of chords..)

B/4F#E F#
E-----------0-------------------------------------------------------
B-------------0-------------7------------5--------------7-----------
G-------8----------------6---------4-----------------6--------------
D----9----------------4---------------6-----------4-----------------
A-------------------------------------------------------------------
E--7---------------6------------4-------------6---------------------
[ Tab from: http://www.guitartabs.cc/tabs/m/mccain_edwin/i_ll_be_tab.html ]
B/4B/4  F#F#
E------------0------------------0-------------------------------------------------------------
B--------------0------------------0-------------7------------------7----------------------------
G--------8------8-----------8-----8-----------6---6-------------6-----6----------------------------
D-----9------------------9------------------4----------------4---------------------------------
A------------------------------------------------------------------------------------------
E--7-----------------7--------------------6---------------6------------------------------------

Emaj7Emaj7F#7/4F#7/4
E---------------------------------------------0--------------------0--------------------------
B----------5-----------------5--------------------0-----------------------------------------
G------4-----4----------4------4-------------3--------3----------3--------------------------------
D--------6----------------6---------------4------------------4---------------------------------
A------------------------------------------------------------------------------------------
E---4----------------4-----------------2------------------2------------------------------------
 

IV.CHORUS (same as verse)
VII.

First Adlib- same as verse

Second Adlib, b4 bridge - B/4 (4x) 


VI.Bridge

AbmAbmF#F#E (4x)
E---------------------------------------------2------------------2------|-----------0------|
B------------4-------------4-------------------2------------------------|--------------0---|
G--------4--------------4----------------3-----------------3------------|--------1-------1-|
D-----6--------------6----------------4----------------4----------------|-----2------------|
A-----------------------------------------------------------------------|------------------|
E--4--------------4---------------2-----------------2-------------------|-0----------------|



AbmAbmF#F#E (4x)
E-------------------------------------------2------------------2--|----------0-------|
B-----------4--------------4------------------2-------------------|-------------0----|
G-------4---------------4--------------3------------------3-------|--------1------1--|
D----6---------------6--------------4-----------------4-----------|-----2------------|
A-----------------------------------------------------------------|------------------|
E -4-------------4---------------2-----------------2--------------|--0---------------|

A2A2F#7/4F#7/4
E------------0-------------------0--------------------0-----------------0--
B--------------0-------------------0---------------------0-----------------
G--------2-------2---------2--------2------------3-----------------3-------
D-----2------------------2---------------------4-----------------4---------
A--0------------------0----------------------------------------------------
E--------------------------------------------2-----------------2-----------

*Repeat chorus

Outro:

Same as verse til fade..  

=====¤w&_17=====
Comments