Mcareavy Diarmuid - Lifting Shadows Chords & Tabs

 

Lifting Shadows Chords & Tabs

Mcareavy Diarmuid Chords & Tabs

Version: 1 Type: Tab 0 ratings
1 star 2 stars 3 stars 4 stars 5 stars
comments

Lifting Shadows Tab

   
#----------------------------------PLEASE NOTE--------------------------------#
#This file is the author's own work and represents their interpretation of the#
#song. You may only use this file for private study, scholarship, or research.#
#-----------------------------------------------------------------------------#

Author/Artist: Diarmuid McAreavy, Ryan Quinn
Title: Lifting Shadows
Album: 
Transcribed by: Rabid_Fox (Diarmuid McAreavy)
Email: thecraftyfox@hotmail.com


**I only tab for Guitar Tab Universe!**


Tuning: Standard

Riff 1
e|---5------------------3--------------------
b|-----6---6---6p5h7------4---4----4p3h4-----
g|-------------------------------------------
D|-------7---7-7p5h7--------5---5--5p3h5-----
A|-5------------------3----------------------
E|-------------------------------------------

Riff 2
e|---3-------------------------------------
b|------3h4p3~-----------------------------
g|-----------------------------------------
D|-----------------------------------------
A|-3---------------------------------------
E|-----------------------------------------

Intro: Riff 1 x2
[ Tab from: http://www.guitartabs.cc/tabs/m/mcareavy_diarmuid/lifting_shadows_tab.html ]
Riff 1
I know this may sound crazy, my mind's a little hazy
Riff 1
But I could neer ignore you, could never let you go
Riff 1
My life's better because of you, I know now why I'm here
Riff 1                                    Riff 2
I want you to know baby, never wanted you to leave

Prechorus:
Fm                       Bbm
Walking down a long dark road, destination's unclear
Fm                Bbm
Have something to eat, keep burning away, sleep
Fm                     Bbm              G
Clothes baggy and worn, colours fade to black

Chorus:
Bm                             A
I believe that life, it always works out in the end
G                   G/F#    G           G/F#
With a little elbow grease, we can achieve
Bm                    A
Know there is nothing beyond you
G                 G/F#    G         G/F#
In this game called life, you will succeed

When you feel all alone, don't be afraid of the unknown
These feelings we all have, we all have to grieve and cry
But at the end remember your smile, we're all puppets of emotion
Drowning in it's ocean, we can never escape

Prechorus

Chorus

Chorus chords, strummed hard

Chorus (pick chorus chords)
Comments