Mcareavy Diarmuid - Diffidence Chords & Tabs

 

Diffidence Chords & Tabs

Mcareavy Diarmuid Chords & Tabs

Version: 1 Type: Chords 0 ratings
1 star 2 stars 3 stars 4 stars 5 stars
comments

Diffidence Chords

   
#----------------------------------PLEASE NOTE--------------------------------#
#This file is the author's own work and represents their interpretation of the#
#song. You may only use this file for private study, scholarship, or research.#
#-----------------------------------------------------------------------------#

Author/Artist: Diarmuid McAreavy
Title: Diffidence
Album: n/a
Transcribed by: improviduto (Trevor)
Email: theycallmetheglove@hotmail.com


**I only tab for Guitar Tab Universe!**


Tuning: Standard (EADGBe)

Notes: Great Irish artist. I had the chance to actually run this by him, so I know it's correct!


[Verse]

(riff played over verse)

e--|--------------|--------------|--------------|
B--|-----5-----5--|--5-----5/-2--|--0--1p-0-----| 
G--|--------------|--------------|--------------|
D--|--------------|--------------|--------------|
A--|--3-----3-----|--3-----3/-3--|--2--3--------|
E--|--------------|--------------|--------------|

You are the wolf that howls
At herself

The moon small solace crystal beacons
Of the night

You are gray magic a curse
Oon yourself

Lonesome yet loathesome brittle pains
Of the human


[Chorus]
[ Tab from: http://www.guitartabs.cc/tabs/m/mcareavy_diarmuid/diffidence_crd.html ]
C                   Em
Are you illusion or dispair
Am                   Cmaj7 Cmaj9
That alludes just to refer
C                          Em
To the desperate screaming need
Am                         Cmaj7 Cmaj9
Of the starving that won't feed


[Verse]

(riff played over verse)

e--|--------------|--------------|--------------|
B--|-----5-----5--|--5-----5/-2--|--0--1p-0-----| 
G--|--------------|--------------|--------------|
D--|--------------|--------------|--------------|
A--|--3-----3-----|--3-----3/-3--|--2--3--------|
E--|--------------|--------------|--------------|

You are the ice cold shattered
And sheltered

Translucent and bitter beauty comes
On reflection

You are the river you hate this
Like starlight

An inferrence of concept last denial
reaffirmed


[Chorus]

C                   Em
Are you illusion or dispair
Am                   Cmaj7 Cmaj9
That alludes just to refer
C                          Em
To the desperate screaming need
Am                         Cmaj7 Cmaj9
Of the starving that won't feed

(swell)

C                   Em
Are you illusion or dispair
Am                   Cmaj7 Cmaj9
That alludes just to refer
C                          Em
To the desperate screaming need
Am                         Cmaj7 Cmaj9
Of the starving that won't feed


[End!]


**Chords used (EADGBe)**

C: x3201x
Em: 02200x
Am: x0221x
Cmaj7: 02201x
Cmaj9: 32001x   

Comments