Mcadoo Daniel - Entertainer Chords & Tabs

 

Entertainer Chords & Tabs

Mcadoo Daniel Chords & Tabs

Version: 1 Type: Tab 1 rating
1 star 2 stars 3 stars 4 stars 5 stars
comments

Entertainer Tab

This song is normally played on piano, but here it is on Guitar. On this song tune the 6th string down 1 step to a D.
Have Fun!

/=Slide
\=Slide
P=Pull Off
H=Hammer On

E	12/14---10---------------------------------	
B	10----------------12/14----10-----5h7------	
G	11----------------------------------7------
D	12-----------------------------------------
A	-------------------------------------------
E	-------------------------------------------

E	-------------------------------------------
B	--------------------3----------------------
G	7---4---6----------2-----------------------
D	--------------7-----2h4--------------------
A	---------------------------5---2---4—2\1---	
E	-------------------------------------------




E	--------7---5------------------------------
B	--------5---5----------------------3-------
G	--------6---6--	--------------------2------
D	--------5---5---------2---3---4---------0--	
A	0------------------------------------------
E	--------------------------------0----------

E	----------------------------------------0--
B	----3------3-----------3----------3--------	
G	----2------4-----------4---------------0---
D	4------4---------5---------------4---------
A	-------------------------------------------
E	---------------5-----5------4--------------
(pluck 6th open when sliding into 2nd fret)
E	1/2-------------0---2----------0-------------	
B	--------3--------------2-------3-------------	
G	1/2-------------0---2----------0-------------
D	--------4--------------2-------0-------------
A	-------------------0---------------0---------	
E	-----0---------------------------------0-----






E	---------------------------------------------
B	--------------------3----------3-------3-----
G	--------------------2----------2-------4-----
D	-------2---3---4------0---4-------4----------	
A	0--------------------------------------------
E	----0----------0-----------------------5-----
[ Tab from: http://www.guitartabs.cc/tabs/m/mcadoo_daniel/entertainer_tab.html ]
E	---------------------------------------------
B	----3------------------0-----------0---3-----	
G	----4--------------2-------2---1-------------
D	5--------------0-----------------------------
A	---------------------------------------------
E	--------5---4-------------------2------------

E	2------0-------------------------------------
B	-----------3---0---2---2--2------------------
G	--------------------2---2—0------------------
D	-------------------------------2---3---4-----
A	--------------------0------------------------
E	----2-----------------------------------0----






E	--------------------------------------------
B	3----------3-------3----------3-------------
G	2----------2-------4----------4-------------
D	----0---4-----4----------5------------------
A	--------------------------------------------
E	-----------------------5-----------5---4----

E	----0---1/2-----------0---2-------0---------
B	3--------------3---------------2-------3----
G	----0---1/2-----------0---2-------0---------
D	4--------------4---------------2-------0----
A	----------------------------0---------------
E	---------0----------------------------------

E	-------------------0----2-----0----2--------
B	--------------3---------3--------------3----
G	--------------------------------------------
D	-------------------0------------------------
A	0-----------------------------------3-------
E	-------0------------------------------------






E	0-------2--------0---2----------0-----2----
B	----3-------3--------------3--------3------
G	-------------------------------------------
D	-------------------------------------------
A	--------2---------------1-----------2------
E	-------------------------------------------

E	----0---2----------0-----------------------
B	3--------------2-------3-------------------
G	----0---2----------0-----------------------
D	0--------------2-------0-------------------
A	------------0-----------------0------------
E	-------------------------------------0-----

Thanks to my guitar teacher; Mike
Comments