Mc Lars - Hot Topic Is Not Punk Rock Chords & Tabs

 

Hot Topic Is Not Punk Rock Chords & Tabs

Mc Lars Chords & Tabs

Version: 1 Type: Bass Tab

Hot Topic Is Not Punk Rock Bass Tab

Title: "Hot Topic Is Not Punk Rock"
Artist: MC Lars feat. The Matches
Album: The Graduate (Horris/Nettwerk, 2006)
Length: 2:15
Tabbed by: jeanine m
Tuning: standard (EADG)


Introduction:
"MC Lars...is more punk than you!"
G|--------------2----121----------------|
D|-444444444--04-4--2-------------------|
A|--------------------------------------|   x4
E|--------------------------------------|
(guitar enters on 3rd measure)


Verse:
G|--------------------------------------|
D|----------00002222--------------------|
A|--------------------------------------| x8
E|-22222222-----------------------------|


Chorus: (slower)
G|--------------------------------------|
D|--------------------------------------|
A|-------------------55555555-22222222--| x2
E|-22222222-55555555--------------------|


Pre-verse:
G|--------------------------------------|
D|-44444444-00002222--------------------|
A|--------------------------------------| x4
E|--------------------------------------|

[ Tab from: http://www.guitartabs.cc/tabs/m/mc_lars/hot_topic_is_not_punk_rock_btab.html ]
Verse 2:
G|--------------------------------------|
D|----------00002222--------------------|
A|--------------------------------------| x7
E|-22222222-----------------------------|

G|----------x----------------------------|
D|----------x----------------------------|
A|----------x----------------------------|
E|-22222222-x----------------------------|


Chorus: (slower)
G|--------------------------------------|
D|--------------------------------------|
A|-------------------55555555-22222222--| x2
E|-22222222-55555555--------------------|


Bridge: (only bass and drums)
G|--------------------------------------|
D|-44444444-00002222--------------------|
A|--------------------------------------| x12
E|--------------------------------------|


Ending:
G|--------------2----121----------------|
D|-444444444--04-4--2-------------------|
A|--------------------------------------|   x2
E|--------------------------------------|

G|------2-4-6--9-11-14--13-11-9--6-4-2----------------------------|
D|-4444---------------------------------4-2---2-------------------|
A|------------------------------------------4---4-2-0-------------|
E|-----------------------------------------------------0-0-0-0-2--|