Mc Cartney Paul - Somedays Chords & Tabs

 

Somedays Chords & Tabs

Mc Cartney Paul Chords & Tabs

Version: 1 Type: Tab 0 ratings
1 star 2 stars 3 stars 4 stars 5 stars
comments

Somedays Tab

   
#----------------------------------PLEASE NOTE---------------------------------#
#This file is the author's own work and represents their interpretation of the #
#song. You may only use this file for private study, scholarship, or research. #
#------------------------------------------------------------------------------#


Somedays
from Flaming Pie
by Paul McCartney
Transcribed and Submitted by Aaron Herrnstein


verses 2 and 3 use the same tab as for verse 1

B2 -2-   A' -x-  GM7 -x-
   -2-      -0-      -x-
   -4-      -4-      -0-
   -4-      -2-      -4-
   -2-      -0-      -5-
   -2-      -x-      -3-

rest of chords are standard chords


Intro:
|--------------------------------------------------|
|-----------2-----------0-----------2-----------0--|
|--------4-----------4-----------4-----------4-----|
|-----4-----------2-----------4-----------2--------|
|--2-----------0-----------2-----------0-----------|
|--------------------------------------------------|


verse 1:
   B2              A'           B             A'
|---------------------------------------------------------------
|---------------2------------0-------------2----------------0---
|----------4--------------4-----------4----------------4--------
|-----4----------------2-----------4--------------2-------------
|--2--------------0-------------2-------------0-----------------
|---------------------------------------------------------------
     


  GM7            Em             B            A'
-----------------------------|-----------------------------
-----------------------------|-------------2------------0--
--------------0-----------0--|----------4------------4-----
--------4--------------2-----|-----4------------2----------
-----------5--------2--------|--2------------0-------------
--3--------------0-----------|-----------------------------



  B               A'                GM7           Em
--------------------------------------------------------------|
--------------2-----------------0-----------------------------|
--------4-------------------4------------------0-----------0--|
-----4-----------------2-----------------4--------------2-----|
--2--------------0--------------------------5--------2--------|
------------------------------------3-------------0-----------|
 .......


    C                               Em
|--------------------------------------------------------------
|--------------1---------------1-------------------------------
|-----------0---------------0-------------------0-----------0--
|------2----------------2-------------------2------------2-----
|---3---------------3--------------------2------------2--------
|-----------------------------------0--------------0-----------
    

[ Tab from: http://www.guitartabs.cc/tabs/m/mc_cartney_paul/somedays_tab.html ]
    C                                  Em
|-----------------------------------------------------0-----------|
|--------------1-------------------1---------------------0--------|
|----------0----------------0----------------------0--------0-----|
|------2-----------------2---------------------2---------------2--|
|---3--------------3------------------------2---------------------|
|--------------------------------------0--------------------------|
   


   B                A'           B               A'
|-------------------------------------------------------------------
|---------------2-------------0---------------2-----------------0---
|----------4---------------4-------------4-----------------4--------
|-----4-----------------2-----------4-----------------2-------------
|--2---------------0-------------2---------------0------------------
|-------------------------------------------------------------------
   


  B             A'          B           A'          B
-------------------------------------------------------------|
-------------2-----------0-----------2-----------0--------2--|
----------4-----------4-----------4-----------4--------4--4--|
-------4-----------2-----------4-----------2--------4--4-----|
--2-------------0-----------2-----------0-----------2--------|
-------------------------------------------------------------|
  



Chorus:
    D          A           B             F#m
|------------------------------------------------------
|------------7-------------------------2---------------
|---------7-------------6---------4-----------------2--
|------7-------------7---------4-----------------4-----
|---5-------------7--------2------------------4--------
|--------------5-------------------------2-------------
  We   don't need  an- y- bod- y else ....


  G           A               D            A
------------------------------------------------------------
----------------------------------------7-------------------
-----------4---------------6---------7-------------------6--
--------5-------------7-----------7-----------------7-------
-----5-------------7----------5---------------- 7-----------
--3-----------5----------------------------5----------------
       


  B            F#m          G            A               D
------------------------------------------------------------|
------------2--------------------------------------------7--|
---------4---------------2-----------4---------------6---7--|
------4---------------4-----------5--------------7-------7--|
--2----------------4-----------5------------7------------5--|
---------------2------------3------------5------------------|
  




Solo:  (Notes in paraenthesis are an "echo" guitar.  Probably classical)
|----7-------(7)-----5-------(5)-----------------------------------------
|-7-----(7)-------7-----(7)-------7p5p3p0--(7p5p3p0)--0--3--5--(0--3--5)-
|------------------------------------------------------------------------
|------------------------------------------------------------------------
|------------------------------------------------------------------------
|------------------------------------------------------------------------


----7-------(7)-----5-------(5)----------------------------------------|
-7-----(7)-------7-----(7)-------7p5p3p0--(7p5p3p0)--------------------|
----------------------------------------------------------6--6h7p6-----|
------------------------------------------------------7-9----------9-7-|
-----------------------------------------------------------------------|
-----------------------------------------------------------------------|
Comments