Mc Cartney Paul - Old Siam Sir Chords & Tabs

 

Old Siam Sir Chords & Tabs

Mc Cartney Paul Chords & Tabs

Version: 1 Type: Tab 0 ratings
1 star 2 stars 3 stars 4 stars 5 stars
comments

Old Siam Sir Tab

   
This file is all my own work.If you have any corrections,mail me at:krysov@bk.ru

Tabber:krysov@bk.ru
Chords:EADGBE
Am/G:  302210
Am/F#: 202210
[ Tab from: http://www.guitartabs.cc/tabs/m/mc_cartney_paul/old_siam_sir_tab.html ]
Riff1:
e|--------------------------------------------------------------------------
B|--------------------------------------------------------------------------
G|--------------------------------------------------------------------------
D|---2---2---2---0h2---2---2-----0-2-0---0----------------------------------
A|--------------------------------------------------------------------------
E|-0---0---0---0-----0---0---0-3-------3---0--------------------------------
Riff2:
e|-19-19-19-19-17-15--14-15--17--19-19-19-19-17-15--14-15-17-12-------------
B|--------------------------------------------------------------------------
G|--------------------------------------------------------------------------
D|--------------------------------------------------------------------------
A|--------------------------------------------------------------------------
E|--------------------------------------------------------------------------
Riff3:
  D      C
e|--------------------------------------------------------------------------
B|-7-7-7-5------------------------------------------------------------------
G|-7-7-7-5------------------------------------------------------------------
D|--------------------------------------------------------------------------
A|--------------------------------------------------------------------------
E|--------------------------------------------------------------------------
Riff4:(lots of times)
e|-s7-----------------------------------------------------------------------
B|--------------------------------------------------------------------------
G|--------------------------------------------------------------------------
D|--------------------------------------------------------------------------
A|--------------------------------------------------------------------------
E|--------------------------------------------------------------------------
Solo1:
  Am              Am/G            Am/F#           Am/G
e|--8-7-5-35-35----8-7-5-35-35----8-7-5-35-35----8-7-5-35-35-35-35----------
B|--------------5--------------5--------------5-----------------------------
G|--------------------------------------------------------------------------
D|--------------------------------------------------------------------------
A|-0------------------------------------------------------------------------
E|--------------------------------------------------------------------------

  Am              Am/G            Am/F#           Am/G
e|--8-7-5-35-35----8-7-5-35-35----8-7-5-35-35----8-7-5-35-35-35-35----------
B|--------------5--------------5--------------5-----------------------------
G|--------------------------------------------------------------------------
D|--------------------------------------------------------------------------
A|-0------------------------------------------------------------------------
E|--------------------------------------------------------------------------
Solo2:
  Am              Am/G            Am/F#           Am/G
e|--8-7-5-35-35----8-7-5-35-35----8-7-5-35-35----8-7-5-35-35-35-35----------
B|--------------5--------------5--------------5-----------------------------
G|--------------------------------------------------------------------------
D|--------------------------------------------------------------------------
A|-0------------------------------------------------------------------------
E|--------------------------------------------------------------------------
Intro:Riff1(2 times) then riff1 and riff2(2 times)
Comments