Mc Cartney Paul - Maybe I'm Amazed Chords & Tabs

 

Maybe I'm Amazed Chords & Tabs

Mc Cartney Paul Chords & Tabs

Version: 1 Type: Tab 2 ratings
1 star 2 stars 3 stars 4 stars 5 stars
comments

Maybe I'm Amazed Tab

   
#----------------------------------PLEASE NOTE---------------------------------#
#This file is the author's own work and represents their interpretation of the #
#song. You may only use this file for private study, scholarship, or research. #
#------------------------------------------------------------------------------#

Date: Mon, 17 Nov 1997 04:45:02 -0500
From: Steve Demkin 
Subject: Chords: Maybe I'n Amazed (McCartney)


Maybe I'm Amazed (Paul McCartney)


Note to archivist:  This file is a variation 
of a version previously submitted by
Glen Macon (macon@cbmvax.commodore.com) in 1992.
This version reflects the way I've played the
song since 1986 -- it contains additional chords,
outright chord changes and a (basic) tabbed intro 
and solo. - Stephen (sdemkin@dcccnet.dccc.edu)


Intro (riff):

  no chord                 Bb etc....
e--------------------------------- 
B---------------------------------
G----------------0-1-2------------
D------0-1-2-3-4------------------
A--3-4----------------------------
E---------------------------------
   1 + 2 + 3 + 4 + 1 +     "Maybe I'm.....


Verse 1


Solo

  Bb        F            C      G
[ Tab from: http://www.guitartabs.cc/tabs/m/mc_cartney_paul/maybe_im_amazed_tab.html ]
e----1---1--3--1---------0-1-0---------| 
B--3---3----------3--1----------3-0----| 
G-----------------------------------0--| 
D--------------------------------------|  PART I
A--------------------------------------| 
E--------------------------------------| 

  Bb        F           C (tacet)intro riff

e----1---1--3--1---------0-------------| 
B--3---3----------3--1-----1-----------| 
G----------------------------0---------| 
D------------------------------2-------|  PART II    (repeat PART I 
A--------------------------------------|         then go to PART III below)
E--------------------------------------| 

  Bb      F/A(bass)   Ab     Eb/G(bass) C

e-----------------------------------------------------5-3-| 
B--3-4-3---1----------1-2-1-----------------------3-5-----| 
G-------------2---------------3-0-------------3-5---------| 
D----------------3----------------1-------3-5-------------| PART III
A---------------------------------------3-----------------| 
E---------------------------------------------------------| 

return to chorus after solo

Verse 2 (rhythm guitar should scrape or mute strings during this verse).
Comments