Mc Cartney Paul - Live And Let Die Chords & Tabs

 

Live And Let Die Chords & Tabs

Mc Cartney Paul Chords & Tabs

Version: 1 Type: Tab 0 ratings
1 star 2 stars 3 stars 4 stars 5 stars
comments

Live And Let Die Tab

Paul McCartney & Wings - Live and let Die

This is how i worked it out as far as i can tell its right.
Please e-mail me if you have corrections for it.

mepsom@hotmail.com

Tabbed - 21:00 hr 23rd June 2002

-----------------------------------------------------------



0.30 sec(ish)

e|-----------------------------------------------------|
b|--5-7/8----------------------------------------------|
g|-----------------------------------------------------|
d|-----------------------------------------------------|
a|-----------------------------------------------------|
e|-----------------------------------------------------|

0:45 secs,(ish)

e|-----------------------------------------------------|
b|--5-7/8-----------5-7/8------------------------------|
g|--------5-7/8-----------5-7/8------------------------|X 2
d|--------------7-5-------------7-5--------------------|
a|-----------------------------------------------------|
e|-----------------------------------------------------|

1.05 mins (ish)

e|-------------7---------7-----------------------------|
b|-----7-8-6-7---7-8-6-7---7-8-6-7-8-6-7-8-10----------|
g|---7-------------------------------------------------|
d|-----------------------------------------------------|
a|-----------------------------------------------------|
e|-----------------------------------------------------|

What Does it matter ...

1:35 mins (ish)
[ Tab from: http://www.guitartabs.cc/tabs/m/mc_cartney_paul/live_and_let_die_tab.html ]
e|-----------------------------------------------------|
b|--5-7/8-----------5-7/8------------------------------|
g|--------5-7/8-----------5-7/8------------------------|X 2
d|--------------7-5-------------7-5--------------------|
a|-----------------------------------------------------|
e|-----------------------------------------------------|


You Used to say ...

e|-----------------------------------------------------|
b|-----------------------------------------------------|
g|-5-7/8-----------------------------------------------|
d|-----------------------------------------------------|
a|-----------------------------------------------------|
e|-----------------------------------------------------|



e|-----------------------------------------------------|
b|--5-7/8-----------5-7/8------------------------------|
g|--------5-7/8-----------5-7/8------------------------|X 2
d|--------------7-5-------------7-5--------------------|
a|-----------------------------------------------------|
e|-----------------------------------------------------|

e|-----------------------------------------------------|
b|--7-9/10-----------7-9/10----------------------------|
g|--------7-9/10-----------7-9/10----------------------|
d|--------------9-7--------------9-7-------------------|
a|-----------------------------------------------------|
e|-----------------------------------------------------|

e|-----------------------------------------------------|
b|--7-9/10-----------7-9/10----------------------------|
g|--------7-9/10-----------7-9/10----------------------|
d|--------------9-7--------------9-8-------------------|
a|-----------------------------------------------------|
e|-----------------------------------------------------|
Comments