Mc Cartney Paul - Jenny Wren Chords & Tabs

 

Jenny Wren Chords & Tabs

Mc Cartney Paul Chords & Tabs

Version: 1 Type: Tab 2 ratings
1 star 2 stars 3 stars 4 stars 5 stars
comments

Jenny Wren Tab

   
jenny Wren (not suprisingly) is played with a very "blackbird" feel
this is of course an approximation with a couple of bars omitted because of redundancy
..but if you listen to the song it should be very easy to follow



Intro (same as verse but end in the Am) 



VERSE 1

    C   G  Am7                         Am    G        F
E---0------------------------------|--------------------------------------|
B-------3--1h3--3------3-------3---|---1h3--1p0---------------------------|
G-----------------2--------2-------|------------------2---1---------------|
D-------------------2----2-------2-|--------------------2-----2-----------|
A---3------0----0------0-----0-----|---0------------------------2---------|
E-------3--------------------------|--------3---------1-----1-------------|
   


   F   G   Am                        Am Bm  Cm
E----------------------------------|------------------------------------|
B------0--0--h1-1-------1----------|-1---3--sl--4-4-----4-------4-------|
G--2---------------2-------2---2---|----------------5------5-----5------|
D----------------2--2-----2-----2--|-----------------5----5-------------|
A---------0-------------0---0------|-0---2--sl--3--3----3----3----------|
E--1---3---------------------------|------------------------------------|



VERSE 2

    C   G  Am7                         Am    G        F
E---0------------------------------|--------------------------------------|
B-------3--1h3--3------3-------3---|---1h3--1p0---------------------------|
G-----------------2--------2-------|------------------2---1---------------|
D-------------------2----2-------2-|--------------------2-----2-----------|
A---3------0----0------0-----0-----|---0------------------------2---------|
E-------3--------------------------|--------3---------1-----1-------------|

[ Tab from: http://www.guitartabs.cc/tabs/m/mc_cartney_paul/jenny_wren_tab.html ]
   F   G   Am                        Am Bm  Cm
E----------------------------------|------------------------------------|
B------0---0--h1-1-------1---------|-1---3--sl--4-4-----4-------4-------|
G--2---------------2-------2---2---|----------------5------5-----5------|
D----------------2--2-----2-----2--|-----------------5----5-------------|
A----------0-------------0---0-----|-0---2--sl--3--3----3----3----------|
E--1---3---------------------------|------------------------------------|
 


CHORUS

E---------------------|-------------------|-----------------------------
B--8---8--8---4--4-4--|-6----8---9---9-9--|-6--6-6---0--0-0----4--6---8-
G---------------------|-------------------|-----------------------------
D---------------------|-------------------|-----------------------------
A--7-7--7--7--3-3-3-3-|-5----7---8--8-8-8-|-5-5-5-5---------------------
E---------------------|-------------------|----------3-3-3-3---3--5---7-
 


E---------------------|-------------------|-----------------------------
B--8---8--8---8--8-8--|-6----8---9---9-9--|-6--6-6---0--0-0----4--4-----
G---------------------|-------------------|-----------------------------
D---------------------|-------------------|-----------------------------
A--7-7--7--7--7-7-7-7-|-5----7---8--8-8-8-|-5-5-5-5------------3-3-3-3--
E---------------------|-------------------|----------3-3-3-3------------






   C   G  Am7                         Am    G        F
E---0------------------------------|--------------------------------------|
B-------3--1h3--3------3-------3---|---1h3--1p0---------------------------|
G-----------------2--------2-------|------------------2---1---------------|
D-------------------2----2-------2-|--------------------2-----2-----------|
A---3------0----0------0-----0-----|---0------------------------2---------|
E-------3--------------------------|--------3---------1-----1-------------|
  

   F   G   Am                        Am Bm  Cm
E----------------------------------|------------------------------------|
B------0--0--h1-1-------1----------|-1---3--sl--4-4-----4-------4-------|
G--2---------------2-------2---2---|----------------5------5-----5------|
D----------------2--2-----2-----2--|-----------------5----5-------------|
A---------0-------------0---0------|-0---2--sl--3--3----3----3----------|
E--1---3---------------------------|------------------------------------|




SOLO
    C#m       G/B G   Am
E---------------------------------|
B---4----------3------1-----------|
G------5----5-----0-------2---2---|
D-----5------5----------2-------2-|
A---3----3-----2------0----0------|
E-----------------3---------------|

Comments