Mc5 - Kick Out The Jams Chords & Tabs

 

Kick Out The Jams Chords & Tabs

Mc5 Chords & Tabs

Version: 1 Type: Tab 0 ratings
1 star 2 stars 3 stars 4 stars 5 stars
comments

Kick Out The Jams Tab

Guitar 1 & 2 Intro:
e|------------------------------------|
b|------------------------------------|
g|------------------------------------|
d|--2-2-2-4~~~~-----------------------|
a|--2-2-2-4~~~~-----------------------|
e|--0-0-0-2~~~~-----------------------|
            Yeah! I... I... I... I...

Guitar 1 & 2 Intro:
e|----------------------------------------------------|
b|----------------------------------------------------|
g|----------------------------------------------------|
d|----------------------------2/8v/2--2-2-5-5/7-7-7-7-|
a|----------------------------2/8v/2--2-2-5-5/7-7-7-7-|
e|----------------------------0/0-/0--0-0-3-3/5-5-5-5-|
  I\'m gonna... I\'m gonna kick em\' out!        Yeah!    

Guitar 1 & 2 Intro:
e|-----------------------------------|
b|-----------------------------------|
g|-----------------------------------|
d|--2-2-5-5/7-7-7-7--2-2-5-5/7-7-7-7-|
a|--2-2-5-5/7-7-7-7--2-2-5-5/7-7-7-7-|
e|--0-0-3-3/5-5-5-5--0-0-3-3/5-5-5-5-|




Guitar 1 & 2 Verse:
e|-----------------------------------------------|
b|-----------------------------------------------|
g|-----------------------------------------------|
d|--2--2--5--5/7--7--7--7--2--2--5--5/7--7--7--7-|
a|--2--2--5--5/7--7--7--7--2--2--5--5/7--7--7--7-|
e|--0--0--3--3/5--5--5--5--0--0--3--3/5--5--5--5-|
                                          Well I

Guitar 1 & 2 Verse:
e|-----------------------------------------------|
b|-----------------------------------------------|
g|-----------------------------------------------|
d|--2--2--5--5/7--7--7--7--2--2--5--5/7--7--7--7-|
a|--2--2--5--5/7--7--7--7--2--2--5--5/7--7--7--7-|
e|--0--0--3--3/5--5--5--5--0--0--3--3/5--5--5--5-|
    Feel  pretty good   and i guess that i could

Guitar 1 & 2 Verse:
e|-----------------------------------------------|
b|-----------------------------------------------|
g|-----------------------------------------------|
d|--2--2--5--5/7--7--7--7--2--2--5--5/7--7--7--7-|
a|--2--2--5--5/7--7--7--7--2--2--5--5/7--7--7--7-|
e|--0--0--3--3/5--5--5--5--0--0--3--3/5--5--5--5-|
    Get crazy now baby              \'Cause we all

Guitar 1 & 2 Verse:
e|-----------------------------------------------|
b|-----------------------------------------------|
g|-----------------------------------------------|
d|--2--2--5--5/7--7--7--7--2--2--5--5/7--7--7--7-|
a|--2--2--5--5/7--7--7--7--2--2--5--5/7--7--7--7-|
e|--0--0--3--3/5--5--5--5--0--0--3--3/5--5--5--5-|
    Got  in   tune   and when the dressing room 

Guitar 1 & 2 Verse:
e|-----------------------------------------------|
b|-----------------------------------------------|
g|-----------------------------------------------|
d|--2--2--5--5/7--7--7--7--2--2--5--5/7--7--7--7-|
a|--2--2--5--5/7--7--7--7--2--2--5--5/7--7--7--7-|
e|--0--0--3--3/5--5--5--5--0--0--3--3/5--5--5--5-|
    Got hazy now baby                    I know

Guitar 1 & 2 Verse:
e|-----------------------------------------------|
b|-----------------------------------------------|
g|-----------------------------------------------|
d|--2--2--5--5/7--7--7--7--2--2--5--5/7--7--7--7-|
a|--2--2--5--5/7--7--7--7--2--2--5--5/7--7--7--7-|
e|--0--0--3--3/5--5--5--5--0--0--3--3/5--5--5--5-|
    How you want it     child hot quick and tight  

Guitar 1 & 2 Verse:
e|-----------------------------------------------|
b|-----------------------------------------------|
g|-----------------------------------------------|
d|--2--2--5--5/7--7--7--7--2--2--5--5/7--7--7--7-|
a|--2--2--5--5/7--7--7--7--2--2--5--5/7--7--7--7-|
e|--0--0--3--3/5--5--5--5--0--0--3--3/5--5--5--5-|
  The girls can\'t stand it when your doin it right




Guitar 1 & 2 Chorus:
e|-----------------------|
b|-----------------------|
g|-----------------------|
d|--2-2-2-4~~~~~---------|
a|--2-2-2-4~~~~~---------|
e|--0-0-0-2~~~~~---------|
  Let me up on the stand

Guitar 1 & 2 Chorus:
e|---------------------------------------------------------------------------|
b|---------------------------------------------------------------------------|
g|-----------------------------------------4~~~-----------------x-4~~~-------|
d|-------------------------x-4-4-4---x-2---4~~~-------------x-4-x-4~~~-2/8/2-|
a|-------------------------x-4-4-4---x-2---2~~~-------------x-4-x-2~~~-2/8/2-|
e|-------------------------x-2-2-2---x-0--------------------x-2--------0/0/0-|
    And let me kick out the jams!          Yes! Kick out the jams!





Guitar 1 & 2 Verse:
e|-----------------------------------------------|
b|-----------------------------------------------|
g|-----------------------------------------------|
d|--2--2--5--5/7--7--7--7--2--2--5--5/7--7--7--7-|
a|--2--2--5--5/7--7--7--7--2--2--5--5/7--7--7--7-|
e|--0--0--3--3/5--5--5--5--0--0--3--3/5--5--5--5-|

Guitar 1 & 2 Verse:
e|-----------------------------------------------|
b|-----------------------------------------------|
g|-----------------------------------------------|
d|--2--2--5--5/7--7--7--7--2--2--5--5/7--7--7--7-|
a|--2--2--5--5/7--7--7--7--2--2--5--5/7--7--7--7-|
e|--0--0--3--3/5--5--5--5--0--0--3--3/5--5--5--5-|
                                           Yes

Guitar 1 & 2 Verse:
e|-----------------------------------------------|
b|-----------------------------------------------|
g|-----------------------------------------------|
d|--2--2--5--5/7--7--7--7--2--2--5--5/7--7--7--7-|
a|--2--2--5--5/7--7--7--7--2--2--5--5/7--7--7--7-|
e|--0--0--3--3/5--5--5--5--0--0--3--3/5--5--5--5-|
  Now I\'m startin to sweat and my shirts all wet

Guitar 1 & 2 Verse:
e|-----------------------------------------------|
b|-----------------------------------------------|
g|-----------------------------------------------|
d|--2--2--5--5/7--7--7--7--2--2--5--5/7--7--7--7-|
a|--2--2--5--5/7--7--7--7--2--2--5--5/7--7--7--7-|
e|--0--0--3--3/5--5--5--5--0--0--3--3/5--5--5--5-|
                                          In the
[ Tab from: http://www.guitartabs.cc/tabs/m/mc5/kick_out_the_jams_tab.html ]
Guitar 1 & 2 Verse:
e|-----------------------------------------------|
b|-----------------------------------------------|
g|-----------------------------------------------|
d|--2--2--5--5/7--7--7--7--2--2--5--5/7--7--7--7-|
a|--2--2--5--5/7--7--7--7--2--2--5--5/7--7--7--7-|
e|--0--0--3--3/5--5--5--5--0--0--3--3/5--5--5--5-|
    that   abounds   and   resounds and rebounds 

Guitar 1 & 2 Verse:
e|-----------------------------------------------|
b|-----------------------------------------------|
g|-----------------------------------------------|
d|--2--2--5--5/7--7--7--7--2--2--5--5/7--7--7--7-|
a|--2--2--5--5/7--7--7--7--2--2--5--5/7--7--7--7-|
e|--0--0--3--3/5--5--5--5--0--0--3--3/5--5--5--5-|
    off the ceiling                         You

Guitar 1 & 2 Verse:
e|-----------------------------------------------|
b|-----------------------------------------------|
g|-----------------------------------------------|
d|--2--2--5--5/7--7--7--7--2--2--5--5/7--7--7--7-|
a|--2--2--5--5/7--7--7--7--2--2--5--5/7--7--7--7-|
e|--0--0--3--3/5--5--5--5--0--0--3--3/5--5--5--5-|
    Gotta have it baby      you can\'t do without

Guitar 1 & 2 Verse:
e|-----------------------------------------------|
b|-----------------------------------------------|
g|-----------------------------------------------|
d|--2--2--5--5/7--7--7--7--2--2--5--5/7--7--7--7-|
a|--2--2--5--5/7--7--7--7--2--2--5--5/7--7--7--7-|
e|--0--0--3--3/5--5--5--5--0--0--3--3/5--5--5--5-|
  When you get the feeling you gotta sock em\' out





Guitar 1 & 2 Chorus:
e|-----------------------|
b|-----------------------|
g|-----------------------|
d|--2-2-2-4~~~~~---------|
a|--2-2-2-4~~~~~---------|
e|--0-0-0-2~~~~~---------|
   Put my mic in my hand

Guitar 1 & 2 Chorus:
e|---------------------------------------------------------------------------|
b|---------------------------------------------------------------------------|
g|-----------------------------------------4~~~-----------------x-4~~~-------|
d|-------------------------x-4-4-4---x-2---4~~~-------------x-4-x-4~~~-2/17--|
a|-------------------------x-4-4-4---x-2---2~~~-------------x-4-x-2~~~-2/17--|
e|-------------------------x-2-2-2---x-0--------------------x-2--------0/0---|
    And let me kick out the jams!          Yes! Kick out the jams!

	Note: There isn\'t any actual solo to this song. It changes every time he
he plays it. Go ahead improvise.

Guitar 1 & 2 Verse:
e|-----------------------------------------------|
b|-----------------------------------------------|
g|-----------------------------------------------|
d|--2--2--5--5/7--7--7--7--2--2--5--5/7--7--7--7-|
a|--2--2--5--5/7--7--7--7--2--2--5--5/7--7--7--7-|
e|--0--0--3--3/5--5--5--5--0--0--3--3/5--5--5--5-|
                                           So you

Guitar 1 & 2 Verse:
e|-----------------------------------------------|
b|-----------------------------------------------|
g|-----------------------------------------------|
d|--2--2--5--5/7--7--7--7--2--2--5--5/7--7--7--7-|
a|--2--2--5--5/7--7--7--7--2--2--5--5/7--7--7--7-|
e|--0--0--3--3/5--5--5--5--0--0--3--3/5--5--5--5-|
  got to give it up you know you can\'t get enough

Guitar 1 & 2 Verse:
e|-----------------------------------------------|
b|-----------------------------------------------|
g|-----------------------------------------------|
d|--2--2--5--5/7--7--7--7--2--2--5--5/7--7--7--7-|
a|--2--2--5--5/7--7--7--7--2--2--5--5/7--7--7--7-|
e|--0--0--3--3/5--5--5--5--0--0--3--3/5--5--5--5-|
    Miss Mackenzie                   \'Cause it

Guitar 1 & 2 Verse:
e|-----------------------------------------------|
b|-----------------------------------------------|
g|-----------------------------------------------|
d|--2--2--5--5/7--7--7--7--2--2--5--5/7--7--7--7-|
a|--2--2--5--5/7--7--7--7--2--2--5--5/7--7--7--7-|
e|--0--0--3--3/5--5--5--5--0--0--3--3/5--5--5--5-|
    Gets in your brain     it drives you insane 

Guitar 1 & 2 Verse:
e|-----------------------------------------------|
b|-----------------------------------------------|
g|-----------------------------------------------|
d|--2--2--5--5/7--7--7--7--2--2--5--5/7--7--7--7-|
a|--2--2--5--5/7--7--7--7--2--2--5--5/7--7--7--7-|
e|--0--0--3--3/5--5--5--5--0--0--3--3/5--5--5--5-|
    With a frenzy                          The

Guitar 1 & 2 Verse:
e|-----------------------------------------------|
b|-----------------------------------------------|
g|-----------------------------------------------|
d|--2--2--5--5/7--7--7--7--2--2--5--5/7--7--7--7-|
a|--2--2--5--5/7--7--7--7--2--2--5--5/7--7--7--7-|
e|--0--0--3--3/5--5--5--5--0--0--3--3/5--5--5--5-|
    Wigglin\' guitars girl  the clash of the drums

Guitar 1 & 2 Verse:
e|-----------------------------------------------|
b|-----------------------------------------------|
g|-----------------------------------------------|
d|--2--2--5--5/7--7--7--7--2--2--5--5/7--7--7--7-|
a|--2--2--5--5/7--7--7--7--2--2--5--5/7--7--7--7-|
e|--0--0--3--3/5--5--5--5--0--0--3--3/5--5--5--5-|
Make you wanna keep-a-rockin\' \'till the morining comes

Guitar 1 & 2 Chorus:
e|-----------------------|
b|-----------------------|
g|-----------------------|
d|--2-2-2-4~~~~~---------|
a|--2-2-2-4~~~~~---------|
e|--0-0-0-2~~~~~---------|
    Let me be who I am

Guitar 1 & 2 Chorus:
e|---------------------------------------------------------------------------|
b|---------------------------------------------------------------------------|
g|-----------------------------------------4~~~-----------------x-4~~~-------|
d|-------------------------x-4-4-4---x-2---4~~~-------------x-4-x-4~~~-2/8/2-|
a|-------------------------x-4-4-4---x-2---2~~~-------------x-4-x-2~~~-2/8/2-|
e|-------------------------x-2-2-2---x-0--------------------x-2--------0/0/0-|
    And let me kick out the jams!          Yes! Kick out the jams!




Guitar 1 & 2 Outro:
e|-----------------------------------------------------|
b|-----------------------------------------------------|
g|-----------------------------------------------------|
d|--2-----2----2---2--2-22222222222222222222222-4-4~~~-|
a|--2-----2----2---2--2-22222222222222222222222-4-4~~~-|
e|--0-----0----0---0--0-00000000000000000000000-2-2~~~-|



 
 
 
  

Comments