Mc5 - Borderline Chords & Tabs

 

Borderline Chords & Tabs

Mc5 Chords & Tabs

Version: 1 Type: Tab 0 ratings
1 star 2 stars 3 stars 4 stars 5 stars
comments

Borderline Tab

  Intro (Main Riff)

e---------------------------------------------------------------------------|
B---------------------------------------------------------------------------|
G--14--14-12----------------14--14-12----------------14--14-12--------------|
D--14--14-12--12-12--10-7---14--14-12--12-12--10-7---14--14-12--12-12--10-7-|
A--12--12-10--12-12--10-7---12--12-10--12-12--10-7---12--12-10--12-12--10-7-|
E-------------10-10---8-5--------------10-10---8-5--------------10-10---8-5-|


e---------------------------------------------------------------------------|
B---------------------------------------------------------------------------|
G---------------------------------------------------------------------------|
D-3-3-3-3--3-3-3-3--3-3-3-3--3-3-3-3--5-5-5-5--5-5-5-5--5-5-5-5--5-5-5-5----|
A-3-3-3-3--3-3-3-3--3-3-3-3--3-3-3-3--5-5-5-5--5-5-5-5--5-5-5-5--5-5-5-5----|
E-1-1-1-1--1-1-1-1--1-1-1-1--1-1-1-1--3-3-3-3--3-3-3-3--3-3-3-3--3-3-3-3----|

   Verse
[ Tab from: http://www.guitartabs.cc/tabs/m/mc5/borderline_tab.html ]
e---------------------------------------------------------------------------|
B---------------------------------------------------------------------------|
G--14--14--14-14-14---14--14--14-14-14---14--14--14-14-14-------------------|
D--14--14--14-14-14---14--14--14-14-14---14--14--14-14-14-------------------|
A--12--12--12-12-12---12--12--12-12-12---12--12--12-12-12-------------------|
E---------------------------------------------------------------------------|

   Bridge (Just keep hitting
           this Chord every
            few beats until...)

e---------------------------------    --------------------------------------|
B---------------------------------    --------------------------------------|
G--3-------3-------3-------3------    --3-3-3-3-3--3-3-3-3-3----------------|
D--3-------3-------3-------3------    --3-3-3-3-3--3-3-3-3-3--6--8----------|
A--1-------1-------1-------1------    --1-1-1-1-1--1-1-1-1-1--6--8----------|
E---------------------------------    ------------------------4--6----------|

   Outro

e-------------------------------------------------------|
B-------------------------------------------------------|
G----------------9--------------------------------------|
D--7---10---12---9----7----7----7----7----7----7----7---|
A--7---10---12---7----7----7----7----7----7----7----7---|
E--5----8---10--------5----5----5----5----5----5----5---|
Comments