Mazzy Star - Into Dust Chords & Tabs

 

Into Dust Chords & Tabs

Mazzy Star Chords & Tabs

Version: 3 Type: Tab 0 ratings
1 star 2 stars 3 stars 4 stars 5 stars
comments

Into Dust Tab

Standard Tuning

The order of the song is:
Intro
Verse 12X
Break
Verse 6X
Break #2
Verse 8X
Outro

Intro:
e-----------------------------------------------------------------------|
B-----------------------------------------------------------------------|
G---7---7---7---7---7---7---7---7---------------------------------------|
D-----7-------7-------7-------7-----------------------------------------|
A-5-------5-------5-------5---------------------------------------------|
E-----------------------------------------------------------------------|

Verse:
e------------------------------------------------------------------------|
B------------------------------------------------------------------------|
G---7---7----7---7----7---7----7---7----7---7----7---7----7---7----7---7-|
D-----7--------7--------7--------7--------5--------5--------5--------5---|
A-5--------5--------5--------5-------------------------------------------|
E-------------------------------------8--------8--------7--------7-------|

[ Tab from: http://www.guitartabs.cc/tabs/m/mazzy_star/into_dust_tab_ver_3.html ]
Break:
e------------------------------------------------------------------------|
B------------------------------------------------------------------------|
G---7---7----7---7----7---7----7---7---7---7----7---7----7---7----7---7--|
D-----7--------7--------7--------7-------5--------5--------5--------5----|
A-5--------5--------5--------5-------8--------8--------7--------7--------|
E------------------------------------------------------------------------|


Break #2:
e------------------------------------------------------------------------|
B------------------------------------------------------------------------|
G---7---7----7---7----7---7----7---7-------------------------------------|
D-----5--------5--------5--------5---------------------------------------|
A------------------------------------------------------------------------|
E-6--------6--------6--------6-------------------------------------------|


Outro:
e------------------------------------------------------------------------|
B-------12------12----------------------10----10----------10-------------|
G---12------12------12------12-------10----10----10----10----------------|
D-----------------------12--------------------------10-------------------|
A-10-------------------------------8-------------------------------------|
E------------------------------------------------------------------------|

e------------------------------------------------------------------------|
B-------12------12------12--------------10----------10----10-------------|
G---12------12------12------12-------10----10----10----10----------------|
D---------------------------------------------10-------------------------|
A-10-------------------------------8-------------------------------------|
E------------------------------------------------------------------------|

end on
e---------|
B---------|
G------5--|
D----5----|
A--8------|
E---------|
Comments