Mayonnaise - Tulog Chords & Tabs

 

Tulog Chords & Tabs

Mayonnaise Chords & Tabs

Version: 1 Type: Tab 0 ratings
1 star 2 stars 3 stars 4 stars 5 stars
comments

Tulog Tab

   
TULOG by Mayonnaise Tab
Tabbed by: powerbeat_x14
Tuning: Standard (EADGBe)
www.ultimate-guitar.com

Riff 1 (Intro)
e|----0--0-----0--0-----0--0---0-0-------|
B|----0--0-----0--0-----0--0---0-0-------|
G|----0--0-----0--0-----0--0---0-0-------|
D|-777--7---666--6---444--4---2-2---4-6--|
A|-777--7---666--6---444--4---2-2---4-6--|
E|-555--5---444--4---222--2---0-0---2-4--|
*last two power chords are with distortion (the first time you'd play it)
*not sure about the effect; but play it semi-distorted

Riff 2 (Verse)
e|---0----0--0--0--0---0-0-0-0--|      e|---0----0--0--0--0---0--------|    
B|---0----0--0--0--0---0-0-0-0--|      B|---0----0--0--0--0---0--------|
G|---0----0--0--0--0---0-0-0-0--| then G|---0----0--0--0--0---0--------| 
D|-7----6-----4-----2-----2-2---|      D|-7----6-----4-----2-----4466--|
A|-7----6-----4-----2-----2-2---|      A|-7----6-----4-----2-----4466--|
E|-5----4-----2-----0-----0-0---|      E|-5----4-----2-----0-----2244--|
*part 2 of riff 2 = the last 4 power chords are distorted
*not also sure about the effect; just play it semi-distorted

Riff 3 (Chorus)
e|---------|
B|---------|
G|---------| *you could play this one for rhythm (distorted)
D|-7-6-4-2-|
A|-7-6-4-2-|
E|-5-4-2-0-|

-OR-

e|----0--0-----0--0-----0--0---0-0---0-0-|
B|----0--0-----0--0-----0--0---0-0---0-0-|
G|----0--0-----0--0-----0--0---0-0---0-0-| *this riff for lead; it's
D|-777--7---666--6---444--4---2-2---4-6--|  almost the same as the intro
A|-777--7---666--6---444--4---2-2---4-6--|  (semi-distorted)
E|-555--5---444--4---222--2---0-0---2-4--|
[ Tab from: http://www.guitartabs.cc/tabs/m/mayonnaise/tulog_tab.html ]
Riff 4 (Bridge/Adlib - Distortion) 
e|-------------------------------------------------------|
B|-------------------------------------------------------|
G|-------------------------------------------------------|
D|-77--------66----------44---------2222-4-6-------------|
A|-77--------66----------44----10b--2222-4-6-------------|
E|-55--7-4b--44--7b-11b--22--9------0000-2-4-(pickslide)-|
*pickslide for the effect

e|----------------------------------------|
B|----------------------------------------|
G|----------------------------------------|
D|-9h11-11-11-11-9------------------------|
A|------------------9p7-9s11-7--12p11-9-7-|
E|----------------------------------------|

Riff 5 (for the "silent" chorus)
e|---0----0--0--0--0---0-0-0-0--|       e|---0----0--0--0--0------------| 
B|---0----0--0--0--0---0-0-0-0--|       B|---0----0--0--0--0------------|
G|---0----0--0--0--0---0-0-0-0--| then  G|---0----0--0--0--0------------|
D|------------------------------|       D|------------------------------|
A|------------------------------|       A|------------------------------|
E|------------------------------|       E|------------------------------|
*part 2 of riff 5 = it's like part 1, but just don't play the last 4 parts of it.
*still play it semi-distorted

End on:
e|-------|
B|-------|
G|-------|
D|---2---|
A|---2---|
E|---0---|

Song Order:
Intro - Riff 1 (3x)
Verse - Riff 2
Chorus - Riff 3 (2x)
Riff - Riff 3 Ver. 2 (2x)
Verse - Riff 2
Chorus - Riff 3 (4x)
Bridge - Riff 4
Verse - Riff 2 Part 1 (2x)
Chorus - Riff 5 
Chorus - Riff 3 (4x)
Intro - Riff 1 (2x) 
End

I guess that's it. Not 100% sure about it, but it's still close to the original song.
About the strumming, just listen to the song, 'coz I'm not that good at explaining about
the strumming patterns. And also for the timing, just listen to the song for you to get
it. Oh yeah, this is my first tab anyway. I edited it again, 'coz I noticed there was
something wrong. Anyway, Take care and God bless you all! De La Salle Zobel dude here,
the name's Mark R. Have a nice day!

Walang kamatayang pag-ibig sa pamantasan ng De La Salle, Animo La Salle!
Comments