Mayonnaise - Pink White Blue Chords & Tabs

 

Pink White Blue Chords & Tabs

Mayonnaise Chords & Tabs

Version: 4 Type: Tab 0 ratings
1 star 2 stars 3 stars 4 stars 5 stars
comments

Pink White Blue Tab

------------------------------------------------------------------------
		Pink White Blue - Mayonnaise
------------------------------------------------------------------------

Tuning: Standard Tuning
Solo:
e|---------------------------10h12p10------------------------------|
B|--8-7---8-10h8-7----8-7--------------10h12p10--10h12p10h12p10----|
G|------7----------7------7----------------------------------------|
D|-----------------------------------------------------------------|
A|-----------------------------------------------------------------|
E|-----------------------------------------------------------------|
[ Tab from: http://www.guitartabs.cc/tabs/m/mayonnaise/pink_white_blue_tab_ver_4.html ]
e|--------------------------------------------------------------------|
B|--7------10-------77------1010-------77------1010-------77-----10---|
G|----9p7\6---9p7\6----9p7\6-----9p7\6----9p7\6-----9p7\6---9p7\6-----|
D|--------------------------------------------------------------------|
A|--------------------------------------------------------------------|
E|--------------------------------------------------------------------|

e|--------------------------------|
B|--------------------------------|
G|--5/7--7/9--9/11--11/12-16-13---|
D|--------------------------------|
A|--------------------------------|
E|--------------------------------|

sa wakas na kapa ko na rin sana magustuhan nyo
Comments