Mayonnaise - Pink White Blue Chords & Tabs

 

Pink White Blue Chords & Tabs

Mayonnaise Chords & Tabs

Version: 3 Type: Tab 0 ratings
1 star 2 stars 3 stars 4 stars 5 stars
comments

Pink White Blue Tab

PINK WHITE BLUE by Mayonnaise Tab
Tabbed by: powerbeat_x14
Tuning: Standard (EADGBe)
www.ultimate-guitar.com

*NOTE: For the strumming, go figure it out yourself, LISTEN to the song VERY WELL. And
for the other effects, it's also up to you, again, just LISTEN to the song VERY WELL.

Riff 1 (Intro) - DISTORTED
e|-----------------------------------------------------------|
B|-----------------------------------------------------------|
G|-7-6/7--7-6/7---4-3/4--4-3/4-------------------------------|
D|-7-6/7--7-6/7---4-3/4--4-3/4---5-4/5--5-4/5---7-5/7--7-5/7-|
A|-5-4/5--5-4/5---2-1/2--4-1/2---5-4/5--5-4/5---7-5/7--7-5/7-|
E|-------------------------------3-2/3--3-2/3---5-3/5--5-3/5-|

Riff 2 (Pre-verse Riff) - CLEAN w/ effects
e|----------------|         e|----------------|
B|----------------|         B|-7--8-10---7--5-| *this comes along with
G|-7--9-11---7--6-| 2x plus G|-7--8-10---7--5-|  the second time Riff 2
D|-x--x--x---x--x-|         D|----------------|  is played
A|-5--7--9---5--4-|         A|----------------|  
E|----------------|         E|----------------|

Riff 3 (Verse 1 and 2, Chorus)
e|---------------| 
B|---------------|  *pluck this riff for verse 1 and 2, since the real
G|-7---4---------|   plucking ver. of this is hard to tab, clean w/ effects
D|-7---4---5---7-|  *you could also play this for verse 4, clean
A|-5---2---5---7-|  *play it for chorus, distorted
E|---------3---5-|

Riff 4 (Pre-chorus)
e|---------------|                            
B|---------------|  *1st & 3rd power chord, distorted
G|-7-------7-----|  *2nd & 4th power chord, clean w/ effects, plucking 
D|-7---7---7---7-|  *3x   
A|-5---7---5---7-|                      
E|-----5-------5-|
-then-
e|---------------|                            
B|---------------|  *1st two, same as above                         
G|-7-------------|  *3rd power chord, palm-muted                      
D|-7---7---5---7-|  *last power.chord, semi-palm muted then to
A|-5---7---5---7-|   normal/open 
E|-----5---3---5-|
[ Tab from: http://www.guitartabs.cc/tabs/m/mayonnaise/pink_white_blue_tab_ver_3.html ]
Riff 5: (Verse 3) - DISTORTED
e|---------------|         e|---------------|
B|---------------|         B|---------------| 
G|---------------| 3x then G|---------------| *this part is played in  
D|-9--11--12--14-|         D|-9--11--12-----|  "all of this because of you"
A|-7---9--10--12-|         A|-7---9--10-----|  
E|---------------|         E|---------------|

Riff 6: (SOLO/BRIDGE)- DISTORTED
e|----------------------------------------------|
B|----------------------------------------------|
G|--11b-9/10b-7--11b-10h13-11p10b-7--11b-10b-7--|
D|----------------------------------------------|
A|----------------------------------------------|
E|----------------------------------------------|

e|---------------------------------------|
B|--15b-13h15--12b-12h13--11b-11h12--10--|
G|---------------------------------------|
D|---------------------------------------|
A|---------------------------------------|
E|---------------------------------------|

e|------------------------------------|
B|-------------10---------------10----| 
G|--10h11p10p11------10h11p10p11------| 2x
D|---------------12---------------12--|
A|------------------------------------|
E|------------------------------------|

e|------------------------------------------------|
B|------------------------------------------------| *not sure about this,
G|----------------------------15-13b--------------|  this is the closest I
D|--9/12b--9/14b--9/15b--9/16--------/pickslide/--|  can get
A|-----------------------------------/pickslide/--|
E|------------------------------------------------|
*or you could just play the chorus riff for the bridge

Riff 7: (Pre-verse 2, after Solo) - CLEAN/ACOUSTIC
e|----------------------------|
B|----------------------------| *I'm not quite sure about this part, this is
G|-6-7-6-7---6-7-6-7---3---6--|  also the closest I can get
D|-7-7-7-7---6-7-6-7---5---7--| *play this for verse 4, but still I'm not
A|-5-5-5-5---4-5-4-5---5---7--|  sure 'bout this, clean w/ effects, play it 
E|---------------------4---5--|  w/ Riff 3

Riff 8: (Outro/End) - DISTORTED
e|-----------|
B|-----------|
G|-----------|
D|--2--4--5--|
A|--2--4--5--|
E|--0--2--3--|

Song Order:
Intro - Riff 1
Riff - Riff 2 (2x)
Verse - Riff 3 (2x)
Pre-chorus - Riff 4
Chorus - Riff 3 (2x)
Riff - Riff 2 (2x)
Verse - Riff 3 (2x)
Pre-chorus - Riff 4
Chorus - Riff 3 (2x)
Verse - Riff 5
Solo/Bridge - Riff 6
Riff - Riff 7
Verse - Riff 3 / Riff 7
Chorus - Riff 3(4x)
Outro/End - Riff 8

That's about it. Take care and God bless you all! *RIFF 5 EDITED
Animo Zobel! This is for the DLSZ Pep Squad! - Mark R.
Walang kamatayang pag-ibig sa pamantasan ng De La Salle, Animo La Salle!
Comments