Mayonnaise - Pink White Blue Chords & Tabs

 

Pink White Blue Chords & Tabs

Mayonnaise Chords & Tabs

Version: 2 Type: Tab 0 ratings
1 star 2 stars 3 stars 4 stars 5 stars
comments

Pink White Blue Tab

----------------------------------------------------------------------------
			     Pink White Blue - Mayonnaise
----------------------------------------------------------------------------

Tuning: Standard Tuning

Intro:
e|----------------|	e|--------------------|
B|----------------|	B|--------------------|
G|--7---4---------|	G|--7---9-11--7---6---|2x
D|--7---4---5--7--|	D|--7---9-11--7---6---|
A|--5---2---5--7--|	A|--5---7-9---5---4---|
E|----------3--5--|	E|--------------------|

Verse 1:
e|-----------------|
B|-----------------|
G|--7---4----------|2x
D|--7---4---5---7--|
A|--5---2---5---7--|
E|----------3---5--|

Pre-Chorus:
  'Cuz you don't know, what i really feel..
   You don't know, what i really mean..
   You don't know my, you don't know my  name.. and the pain..
e|------------------------------|       e|-------------------|
B|------------------------------|       B|-------------------|
G|-----7------------------------|3x     G|-------------------|
D|-----7-------------------7----|       D|--5------------7---|
A|-----5-------------------7----|       A|--5------------7---|
E|-------------------------5----|       E|--3------------5---|
[ Tab from: http://www.guitartabs.cc/tabs/m/mayonnaise/pink_white_blue_tab_ver_2.html ]
Chorus:
e|-----------------|
B|-----------------|
G|--7-------4------|2x
D|--7---5---4---7--|
A|--5---5---2---7--|
E|------3-------5--|

play this after chorus..
e|------------------|
B|------------------|
G|--7--9-11--7--6---|2x
D|--7--9-11--7--6---|
A|--5--7-9---5--4---|
E|------------------|

Verse 2:	<
Pre-Chorus:	<{repeat niyo lang ung mga tabs dito}
Chorus:		<

Bridge:
  Life to me is very real miracles that i can't feel..
  Everytime i try to sleep i dream of you it feel so real..
  Everytime i try to breathe i suffocate and start to bleed..
e|---------------------------------------------|
B|---------------------------------------------|
G|--5-----------7---------9--------------10----|
D|--5-----------7---------9--------------10----|
A|--3-----------5---------7--------------8-----|
E|---------------------------------------------|

  All of this is because of you..
e|----------------------------|
B|----------------------------|
G|--5-----------7----------9--|
D|--5-----------7----------9--|
A|--3-----------5----------7--|
E|----------------------------|

Solo:(sori.. di ko pa alam ung solo..)
 ^play niyo lng ung verse tabs sa part na toh..

Verse 3:	<
Pre-Chorus:	<{repeat niyo lang ulit}
Chorus:2x	<


Finale:(maririnig niyo toh after ng chorus..)
e|-----------|
B|-----------|
G|-----------|
D|--5--7--8--|
A|--5--7--8--|
E|--3--5--6--|
Comments