Mayonnaise - Jopay Chords & Tabs

 

Jopay Chords & Tabs

Mayonnaise Chords & Tabs

Version: 4 Type: Tab 0 ratings
1 star 2 stars 3 stars 4 stars 5 stars
comments

Jopay Tab

Intro:
e|--------------|
B|--------------|
G|---0----------|2x
D|--4-----------|
A|-5----3~------|
E|--------------|

Verse:
e|---------------------------------------------------------------|
B|--------0--0-----------0--0-----------0-------0------3-0-3-0---|
G|---0---0-0--0-0---0---0-0--0-0---0-------0-------0---0-0-0-0---|
D|--4---2---2--2---4---2---2--2---4---2---4---2---4---2----------|
A|-5---3----------5---3----------5---3---5---3---5---3-----------|
E|---------------------------------------------------------------|

Pre-Chorus:                                  (strum niyo sa part na toh)
   Wag ka lang mawala..   Wag ka lang mawala..     Ngayon..
e|---------------------------------------------------------------|
B|---------------------------------------------------------------|
G|-----2-2-2-2-2-2-2-2--------4-4-4-4-4-4-4-4------6---7---------|
D|-----2-2-2-2-2-2-2-2--------4-4-4-4-4-4-4-4------6---7---------|
A|-----0-0-0-0-0-0-0-0--------2-2-2-2-2-2-2-2------4---5---------|
E|---------------------------------------------------------------|

Chorus: 
Guitar 1:
   Dadalhin kita sa aming bahay. Di tayo mag-aaway, 
     aalis  tayo sa tunay  na   mundo..		         G  Am   Bm  Am
e|-------------------------------------------------|  |--3---0---2---0--|
B|-------------------------------------------------|  |--3---1---3---1--|
G|-------------------------------------------------|or|--0---2---4---2--|2x
D|------5------------7------------9-----------7----|  |--0---2---4---2--|
A|------5------------7------------9-----------7----|  |--2---0---2---0--|
E|------3------------5------------7-----------5----|  |--3---x---x---x--|

Guitar 2: (play niyo lang toh hanggang matapos ung chorus)
e|--2-4-6-4---|
B|------------|
G|------------| (mag e-end ata ito sa 4..)
D|------------|
A|------------|
E|------------|
[ Tab from: http://www.guitartabs.cc/tabs/m/mayonnaise/jopay_tab_ver_4.html ]
Verse 2:
e|---------------------------------------------------------------|
B|--------0--0-----------0--0-----------0-------0------3-0-3-0---|
G|---0---0-0--0-0---0---0-0--0-0---0-------0-------0---0-0-0-0---|
D|--4---2---2--2---4---2---2--2---4---2---4---2---4---2----------|
A|-5---3----------5---3----------5---3---5---3---5---3-----------|
E|---------------------------------------------------------------|

e|---------------------------------------------------------------|
B|--------0--0-----------0--0-----------0-------0------0--0-s----|
G|---0---0-0--0-0---0---0-0--0-0---0-------0-------0------0-t----|
D|--4---2---2--2---4---2---2--2---4---2---4---2---4---2---2-o----|
A|-5---3----------5---3----------5---3---5---3---5---3----3-p----|
E|---------------------------------------------------------------|

(repeat pre-chorus and chorus.)

Bridge:
e|-----------|
B|-----------|	(play niyo lang toh during the solo part.. di ko kasi alam 
G|--1--------|	 ung solo.. pero tama naman yan eh..)
D|--2--4--5--|
A|--2--4--5--|
E|-----2--3--|

(play niyo toh after ng solo)
e|---------------------------------------------------------------|
B|--------0--0-----------0--0-----------0-------0------3-0-3-0---|
G|---0---0-0--0-0---0---0-0--0-0---0-------0-------0---0-0-0-0---|
D|--4---2---2--2---4---2---2--2---4---2---4---2---4---2----------|
A|-5---3----------5---3----------5---3---5---3---5---3-----------|
E|---------------------------------------------------------------|

Pre-Chorus:
   Wag ka lang mawala..   Wag ka lang mawala..     Ngayon..
e|---------------------------------------------------------------|
B|---------------------------------------------------------------|
G|-----2-2-2-2-2-2-2-2--------4-4-4-4-4-4-4-4-------6--7--6--7---|
D|-----2-2-2-2-2-2-2-2--------4-4-4-4-4-4-4-4-------6--7--6--7---|
A|-----0-0-0-0-0-0-0-0--------2-2-2-2-2-2-2-2-------4--5--4--5---|
E|---------------------------------------------------------------|

Chorus: (play niyo ung chorus tabs ng ilang ulit.. then..)

finale:
e|------------|
B|-------0----|
G|----0--0----|
D|---4---2----|
A|--5----3----|
E|------------|
Comments