Mayonnaise - Jopay Chords & Tabs

 

Jopay Chords & Tabs

Mayonnaise Chords & Tabs

Version: 3 Type: Tab 0 ratings
1 star 2 stars 3 stars 4 stars 5 stars
comments

Jopay Tab

   
Title: jopay
       (phoebe)hehe
Artist: mayonnaise
Tuning: normal


may nkita n kong ibang tab.....mdyo mali cla.. e2 ung version ko..tiano
Dishwalla84@yahoo.com

intro:
e|-----------------------|
B|-----------------------|
G|-----------------------|
D|-----3-4---------3-4---|
A|---4-----2-----4-----2-|
E|-----------------------|


verse:

e|-------------------------------------------------------|
B|-------------------------------------------------------|
G|---------------3-----3--------------------3-----3------|
D|-----3-4---------4-----4--------3-4---------4-----4----|
A|---4-----2---2-----2----------4-----2---2-----2--------|
E|-------------------------------------------------------|
     jopay            kmusta k n?

[ Tab from: http://www.guitartabs.cc/tabs/m/mayonnaise/jopay_tab_ver_3.html ]
e|-------------------------------------------------------------|
B|------------------------------------------------2-----2------|
G|--------------3--------------3--------------------3-----3----|
D|-----3-4----4--------3-4---4----------3-4-----4-----4--------|
A|---4-----2---------4-----2----------4-----2------------------|
E|-------------------------------------------------------------|
     lagi kitang     napapanood        nkikita

*ganon lang ang verse:

refrain:
G#, A#, B, C#

chorus:
F#, G#, B, C#

chorus riff:

e|-------6----|
B|---7-9---9--|
G|------------|(these riff plays throughout chorus)
D|------------|
A|------------|
E|------------|


Bridge:
hndi ko p alam ung adlib, msyadong maingay eh. e2 n lang ung chords:
A#, G#, F#, F#...

enjoy the song...ECE rules...Batangas State University..

By:tiano Magsombol
Comments