Mayonnaise - Jopay Chords & Tabs

 

Jopay Chords & Tabs

Mayonnaise Chords & Tabs

Version: 2 Type: Tab 0 ratings
1 star 2 stars 3 stars 4 stars 5 stars
comments

Jopay Tab

e|----------|
B|----------|
G|-----0----|  (repeat 2x)
D|----4---2-|  
A|---5----3-|
E|----------|
     Jopay . . . . . .
e|----------------------|
B|-------------0--0--0--|
G|-------0----0-0--0----| (repeat 2x)
D|------4----2---2--2---|
A|---3s5----3-----------|
E|----------------------|

e|------------------|
B|------------0-----|
G|-------0-----0----| (repeat 2x)
D|------4----2------|
A|---3s5----3-------|
E|------------------|

e|------------------|
B|------3-0-3-0-3---|
G|-----0-0-0-0-0-0--|
D|----2-------------|
A|---3--------------|
E|------------------|
[ Tab from: http://www.guitartabs.cc/tabs/m/mayonnaise/jopay_tab_ver_2.html ]
Refrain:
  wag ka lang mawala...
e|--------------------|
B|---3-3-3-3---3-3-3--|
G|---2-2-2-2---4-4-4--| (pakingan nyo na lang strumming)
D|---2-2-2-2---4-4-4--|
A|-------------2-2-2--|
E|--------------------|

  ngayon... 
e|---3-3-3---3-3-3--|
B|---3-3-3---3-3-3--|
G|---0-0-0---2-2-2--|
D|---2-2-2----------|
A|---3-3-3----------|
E|------------------|




Chorus:
   dadalhin...
e|---3-3-----3--|
B|---3-3-3-3--|
G|---0--2--4-2--| (repeat chorus 2x)
D|---0--2--4-2--|
A|---2-----2-----|
E|---3-----------|

Bridge:
e|---3-3-3--|
B|---3-3-3--|
G|---0-0-----| (repeat 6x)
D|---2-2-2--|
A|---2-----3--|
E|------2-----|
Comments