Mayonnaise - Eddie Song Chords & Tabs

 

Eddie Song Chords & Tabs

Mayonnaise Chords & Tabs

Version: 1 Type: Tab 0 ratings
1 star 2 stars 3 stars 4 stars 5 stars
comments

Eddie Song Tab

Artist: Mayonnaise
Title: Eddie Song
Tabbed by:  Mark Joseph Castillo
..........Hi ulit


Intro ( figure out the strumming  )
e|-2-2-2-2-2-2-2-2-2-2-2-2-2-2-2-2-2-2-----|
B|-2h3-3-2h3-3-2h3-3-2h3-3-2h3-3-2h3-3-----|
G|-2-2-2-2-2-2-2-2-2-2-2-2-2-2-2-2-2-2-----|
D|-x-x-x-x-x-x-x-x-x-x-x-x-x-x-x-x-x-x-----|
A|-x-x-x-x-x-x-x-x-x-x-x-x-x-x-x-x-x-x-----|
E|-----------------------------------------|

e|-2-2-2-2-2-2-2-2-2-2-2-2-2--|
B|-2-2-2-2-2-2-2-2-2-2-2-2-2--|
G|-4-4-4-4-4-4-4-4-4-4-4-4-4--|
D|-4-4-4-4-4-4-4-4-4-4-4-4-4--|
A|-2-2-2-2-2-2-2-2-2-2-2-2-2--|
E|-x-x-x-x-x-x-x-x-x-x-x-x-x--|
Verse 1
e|----------------------------------------------------------------|
B|----------------------------------------------------------------|
G|----------------------------------------------------------------|
D|-5-7-7/9-5-7-7/9-10-9--5-7-7/9-5-7-7/9-10-9---------------------|
A|------------------------------------------------------10--------|
E|----------------------------------------------------------------|

e|-------------------------------------------------------------------|
B|----------------------------------------8-10-10/12-13-11-----------|
G|-------------------------------------------------------------------|
D|-5-7-7/9-5-7-7/9-10-9-----5-7-7/9----------------------------------|
A|--------------------------10---------------------------------------|
E|-------------------------------------------------------------------|


Chorus
oh kahit na.........mawala ka pa......
e|-x-x-x-x-x-x-x--x-x-x-x-x-x-x-|
B|-7-7-7-7-7-7-7--x-x-x-x-x-x-x-|
G|-7-7-7-7-7-7-7--7-7-7-7-7-7-7-|
D|-5-5-5-5-5-5-5--7-7-7-7-7-7-7-|
A|-5-5-5-5-5-5-5--5-5-5-5-5-5-5-|
E|-x-x-x-x-x-x-x--x-x-x-x-x-x-x-|
andito lang ako......naghihintay pa rin sayo...
e|-x-x-x-x-x-x-x-----------------------------------------|
B|-7-7-7-7-7-7-7-----------------------------------------|
G|-7-7-7-7-7-7-7-----------------------------------------|
D|-5-5-5-5-5-5-5--7-7-7-7-7-7-7-7-7-12-12-12-12-12-12-12-|
A|-5-5-5-5-5-5-5--7-7-7-7-7-7-7-7-7-12-12-12-12-12-12-12-|
E|-x-x-x-x-x-x-x--5-5-5-5-5-5-5-5-5-10-10-10-10-10-10-10-|
[ Tab from: http://www.guitartabs.cc/tabs/m/mayonnaise/eddie_song_tab.html ]
Verse 2
e|----------------------------------------------------------------------|
B|-8-10-10/12-8-10-10/12-13-11--8-10-10/12-8-10-10/12-13-11-------------|
G|----------------------------------------------------------------------|
D|----------------------------------------------------------------------|
A|----------------------------------------------------------------------|
E|----------------------------------------------------------------------|
Then
e|-------------------------------------------------------------------|
B|-8-10-10/12-8-10-10/12-13-11-8-10-10/12----------------------------|
G|-------------------------------------------------------------------|
D|-----------------------------------------------5-7-7/9-10-9--------|
A|-------------------------------------------------------------------|
E|-------------------------------------------------------------------|

Repeat Chorus

at kahit na ano pa ang sinabi mo....
e|------------------------------------------------------|
B|------------------------------------------------------|
G|------------------------------7-7-7-7-7-7-7-7-7-7-7---|
B|-5-5-5-5-5-5-7-7-7-7-7-7-7-7-7-7-7-7-7-7-7-7-7--------|
A|-5-5-5-5-5-5-7-7-7-7-7-7-5-5-5-5-5-5-5-5-5-5-5--------|
E|-3-3-3-3-3-3-5-5-5-5-5-5------------------------------|

andito lang ako para sa iyo
e|--------------------------------------|
B|--------------------------------------|
G|--------------------------------------|
B|-5-5-5-5-5-5-7-7-7-7-7-7-7-7-7-7-7-7--|
A|-5-5-5-5-5-5-7-7-7-7-7-7-7-7-7-7-7-7--|
E|-3-3-3-3-3-3-5-5-5-5-5-5-5-5-5-5-5-5--|

Bridge part
e|-------------------|
B|-------------------|
G|--0h2h0------------| (8x)
D|--0h2--------------|
A|--0h2--------------|
E|--0h2----0h2p0-----|
 (di ako sgurado dto s part na to pero katunog nman eh)
e|-----------------------------------------------------------------|
B|--7b/9-7b-7b/9-10-7b/9-14-13-11-13-13/7-7b/9-12-14b--------------|
G|-----------------------------------------------------------------| (2x)
D|-----------------------------------------------------------------|
A|-----------------------------------------------------------------|
E|-----------------------------------------------------------------|

Repeat Chorus
Chorus (dagdag nyo to s huling chorus)
e|------------------|
B|------------------|
G|-----7-9/11\9-----|
D|-7-9--------------|
A|------------------|
E|------------------|

End with D.....Un lang hrhr
Comments