Mayonnaise - Dahil Chords & Tabs

 

Dahil Chords & Tabs

Mayonnaise Chords & Tabs

Version: 4 Type: Tab 0 ratings
1 star 2 stars 3 stars 4 stars 5 stars
comments

Dahil Tab

   
Title: dahil
Artist: mayonnaise
Tabbed By: Tiano Magsombol
E-mail: dishwalla84@yahoo.com
Tuning: ***** Drop D, with capo on first fret.. all chords and riffs are relative to capo..


intro:
e|----------------------------|
B|----------------------------|
G|----------------------------| (x2)
D|----------------------------|
A|----9---9---7---7h9p7---5---|
D|--0---0---0---0-------0-----|

e|----------------------------------------|
B|----------------------------------------|
G|----------------------------------------|
D|------------------------------------7---|
A|----9---9---7---7h9p7---5---------5-----|
D|--9---9---9---9-------9---------5-------|

e|----------------------------|
B|----------------------------|
G|----------------------------| (x2)
D|----------------------------|
A|----9---9---7---7h9p7---5---|
D|--0---0---0---0-------0-----|

e|----------------------------------------|
B|----------------------------------------|
G|----------------------------------------|
D|------------------------------------7---|
A|----9---9---7---7h9p7---5---------5-----|
D|--9---9---9---9-------9---------5-------|


e|-------------------------------------------------------|
B|-------------------------------------------------------|
G|-------------------------------------------------------|
D|--------------------------------------7----7h9p7---4---|
A|----9---9---7---7h9p7---5-----9---9--------------------|
D|--0---0---0---0-------0-----0---0---0----0-------0-----|
[ Tab from: http://www.guitartabs.cc/tabs/m/mayonnaise/dahil_tab_ver_4.html ]
e|----------------------------------------|
B|----------------------------------------|
G|----------------------------------------|
D|------------------------------------7---|
A|----9---9---7---7h9p7---5---------5-----|
D|--9---9---9---9-------9---------5-------|


verse:
D
sabi mo kahapon di mo ako iiwan
   Bm                 G
di mo pababayaan mag-isa
D
sabi mo kanina wag na akong magpakita
   Bm                     G
di mo ako kailangan kailanman

Refrain:
   E            G
hindi mapigil itong damdamin
    E            G
wala na siya dito

chorus:

e|------------------------------------------|
B|------------------------------------------|
G|--7-------4-------------------------------| (repeats every chorus)
D|--7-------4--------7----------2/4/5-7\5---|
A|--5-------2--------7----------2/4/5-7\5---|
D|-------------------7----------2/4/5-7\5---|
    D       B        A          G
    dahil sayo ako'y nandito ngayon

Bridge:

e|----2----0---|
B|-------------|
G|--4-----2----| (paulit-ulit lang)
D|--4-----2----|
A|--2-----0----|
D|-------------|


outro:

e|---3-2-3-2-----------2-3-2--------------|
B|-----------3h5p3-----------3h5p3--------|
G|-----------------4-2--------------4-2---|
D|----------------------------------------|
A|----------------------------------------|
D|----------------------------------------|


hi lahat ng frendz kow... sa mga gumraduate na, manlibre naman kau...
tiano.........BSU_ECE
Comments