Mayonnaise - Bakit Part 2 Chords & Tabs

 

Bakit Part 2 Chords & Tabs

Mayonnaise Chords & Tabs

Version: 3 Type: Tab 0 ratings
1 star 2 stars 3 stars 4 stars 5 stars
comments

Bakit Part 2 Tab

Mayonnaise - Bakit part II
Tabbed by HudaZ
Tuning: Standard (EADGBe)



intro/clean/distortion
e|------------------------------------------|  |---|
B|------------------------------------------|  |---|
G|8-8-8-8-----------------------------------|  |-8-|
D|8-8-8-8--6-6-6-6--10-10-10-10--8-8-8-8----|  |-8-|end with this
A|6-6-6-6--6-6-6-6--10-10-10-10--8-8-8-8----|  |-6-|
E|---------4-4-4-4--8--8--8--8---6-6-6-6----|3x|---|

verse
e|------------------------------------------|  
B|------------------------------------------|  
G|8-8-8-8-----------------------------------| 
D|8-8-8-8--6-6-6-6--10-10-10-10--8-8-8-8----|  
A|6-6-6-6--6-6-6-6--10-10-10-10--8-8-8-8----|  
E|---------4-4-4-4--8--8--8--8---6-6-6-6----|2x
Lumuha kang nagiisa..
Nakadungaw sa buwan..
Lumilipad ang isip mo..
Nakasabit sa ulap..

prechorus
e|---------------|---------------|-----------------------|
B|---------------|---------------|-----------------------|
G|---------------|---------------|-----------------------|
D|-6-6-6-6-6-6-6-|-3-3-3-3-3-3-3-|-8-8-8-8-8-8-8/9-9-9-9-|
A|-6-6-6-6-6-6-6-|-3-3-3-3-3-3-3-|-8-8-8-8-8-8-8/9-9-9-9-|
E|-4-4-4-4-4-4-4-|-1-1-1-1-1-1-1-|-6-6-6-6-6-6-6/7-7-7-7-|
ngunit bakit pinilit..
kung ayaw kong masaktan..

chorus
e|----------------------------------------------------------|
B|----------------------------------------------------------|
G|-8-8-8-8-8-8----------------------------------------------|
D|-8-8-8-8-8-8--6-6-6-6-6-6--10-10-10-10-10-10--6-6-6-6-6-6-|
A|-6-6-6-6-6-6--6-6-6-6-6-6--10-10-10-10-10-10--6-6-6-6-6-6-|
E|--------------4-4-4-4-4-4--8--8--8--8--8--8---4-4-4-4-4-4-|2x
sinabi ko sa kanya..
na di parin nililikha..
ang tulad kong parang timang..
na di parin maintindihan..

verse II
e|------------------------------------------|  
B|------------------------------------------|  
G|8-8-8-8-----------------------------------| 
D|8-8-8-8--6-6-6-6--10-10-10-10--8-8-8-8----|  
A|6-6-6-6--6-6-6-6--10-10-10-10--8-8-8-8----|  
E|---------4-4-4-4--8--8--8--8---6-6-6-6----|2x
Lumuha kang nagiisa..
malayo ang pagtitig mo..
dala ng hangin..
akala ko ay pwede pang..
umasa sa iyo..
[ Tab from: http://www.guitartabs.cc/tabs/m/mayonnaise/bakit_part_2_tab_ver_3.html ]
prechorus
e|---------------|---------------|-----------------------|
B|---------------|---------------|-----------------------|
G|---------------|---------------|-----------------------|
D|-6-6-6-6-6-6-6-|-3-3-3-3-3-3-3-|-8-8-8-8-8-8-8/9-9-9-9-|
A|-6-6-6-6-6-6-6-|-3-3-3-3-3-3-3-|-8-8-8-8-8-8-8/9-9-9-9-|
E|-4-4-4-4-4-4-4-|-1-1-1-1-1-1-1-|-6-6-6-6-6-6-6/7-7-7-7-|
ngunit bakit pinilit..
kung ayaw kong masaktan..

chorus
e|----------------------------------------------------------|
B|----------------------------------------------------------|
G|-8-8-8-8-8-8----------------------------------------------|
D|-8-8-8-8-8-8--6-6-6-6-6-6--10-10-10-10-10-10--6-6-6-6-6-6-|
A|-6-6-6-6-6-6--6-6-6-6-6-6--10-10-10-10-10-10--6-6-6-6-6-6-|
E|--------------4-4-4-4-4-4--8--8--8--8--8--8---4-4-4-4-4-4-|2x
sinabi ko sa kanya..
na di parin nililikha..
ang tulad kong parang timang..
na di parin maintindihan..


Bridge
e|---------------------------------------------------------|
B|---------------------------------------------------------|
G|-8-8-8---------8-8-8---------8-8-8-----------------------|
D|-8-8-8--8-8-8--8-8-8--8-8-8--8-8-8--8-8-8--6-6-6--8-8-8--|
A|-6-6-6--8-8-8--6-6-6--8-8-8--6-6-6--8-8-8--6-6-6--8-8-8--|
E|--------6-6-6---------6-6-6---------6-6-6--4-4-4--6-6-6--|
oh bakit pa pag wala ka na..
akoy kulang..
akoy kulang..

outro chorus
e|----------------------------------------------------------|
B|----------------------------------------------------------|
G|-8-8-8-8-8-8----------------------------------------------|
D|-8-8-8-8-8-8--6-6-6-6-6-6--10-10-10-10-10-10--6-6-6-6-6-6-|
A|-6-6-6-6-6-6--6-6-6-6-6-6--10-10-10-10-10-10--6-6-6-6-6-6-|
E|--------------4-4-4-4-4-4--8--8--8--8--8--8---4-4-4-4-4-4-|5x
sinabi ko sa kanya
na di parin nililikha
ang tulad kong parang timang
na di parin maintindihan
na di parin maintindihan

sinabi ko (sinabi ko)
sa kanya (sa kanya, sa kanya) 

end with this:
e|----------------------------------|
B|----------------------------------|
G|-8-x-8-x-8-x-8--10-x-10-x-10-x-10-|
D|-x-x-x-x-x-x-x--x--x-x--x-x--x-x--|
A|-6-x-6-x-6-x-6--8--x-8--x-8--x-8--|
E|----------------------------------|

e|------------------------------------------------------|
B|------------------------------------------------------|
G|-12-x-12-x-12-x-12--13-x-13-x-13-x-13--13-11-12-10-8--|
D|-x--x-x--x-x--x-x---x--x-x--x-x--x-x---x--x--x--x--8--|
A|-10-x-10-x-10-x-10--11-x-11-x-11-x-11--11-9--10-8--6--|
E|------------------------------------------------------|


just listen to the song for the proper strumming and timing


it's my first tab so i don't expect it to be 100% accurate, you guys
are welcome to send comments about this tab @ triggerhappy9999@yahoo.com.
Comments