Mayonnaise - Bakit Part 2 Chords & Tabs

 

Bakit Part 2 Chords & Tabs

Mayonnaise Chords & Tabs

Version: 1 Type: Tab 0 ratings
1 star 2 stars 3 stars 4 stars 5 stars
comments

Bakit Part 2 Tab

----------------------------------------------------------------------------
			     Bakit Part 2 - Mayonnaise
----------------------------------------------------------------------------

Tuning: Standard Tuning

Intro/Verse:
e|-(0---0---0-0---0)--|
B|-(0---0---0-0---0)--| (wag na lng kau mag slide kung
G|--1---2---4/6---4---|  di nio kaya..)
D|--2---2---4/6---4---|
A|--2-------2/4---2---|
E|--------------------|



Pre-Verse:(maririnig niyo toh before 2nd verse.)
Guitar 1:(play nio lng ung intro 1x)
Guitar 2:
e|--------------------------------------|
B|--3h4p3-------------------------------|
G|--------5-3-5-3-------------------1~--|
D|----------------4-2-0-2-0---------2~--|
A|--------------------------3-1-----2~--|
E|------------------------------3-1-0---|

Pre-Chorus:
e|------------------------|
B|------------------------|
G|--2--2------------------|
D|--2--2--4--4--6---7-9---|
A|--------4--4--6---7-9---|
E|--------2--2--4---5-7---|

Chorus:
e|--------------|
B|--------------| (pde rin play ung intro for the chorus..
G|--1-----------|  or gawin niyong guitar 2 ung intro..)
D|--2--4--6--4--|
A|--2--4--6--4--|
E|-----2--4--2--|
[ Tab from: http://www.guitartabs.cc/tabs/m/mayonnaise/bakit_part_2_tab.html ]
Bridge:(play nio kagad ung bridge part pagkatpos ng chorus.)
e|--------------|  |----------------|
B|--------------|  |----------------|
G|--6--4--6--4--|  |--6--2--4--6-7--|
D|--6--4--6--4--|  |--6--2--4--6-7--|
A|--4--2--4--2--|  |--4-----2--4-5--|
E|--------------|  |----------------|
(mag start ung lyrics ^ dto)

(repeat chorus after the bridge.)
play this 3x
e|--------------|
B|--------------| 

G|--1-----------|
D|--2--4--6--4--|
A|--2--4--6--4--|
E|-----2--4--2--|

Outro:		     \ \ \ \ \
e|-(0--4--6---7)--|--(6-4-6-4-2)--|
B|-(0--4--6---7)--|--(6-4-6-4-2)--|
G|--1-(4--6---7)--|--(6-4-6-4-2)--|
D|--2--4--6---7~--|---6-4-6-4-2~--|
A|--2--4--6---7~--|---6-4-6-4-2~--|
E|-----2--4---5~--|---4-2-4-2-0~--|

may kakaibang strumming pattern sa outro part kaso hrap explain ung pattern kung ilalagay
ko dto.. madali nman matutunan ung pattern eh.. pakinggan nio lng ung outro part ng song
at mkukuha nio rin.. yung sa outro at intro part pde nio isama o hindi ung mga numbers
na nsa loob ng parenthesis kung ano ung gusto nio.. pero mas maganda cguro ung tunog pag
iplay nio ung mga nsa parenthesis.. i would like to thank mark rodriguez for changing
some parts of the song..

Legend:
/ - slide up
~ - let it ring
h - hammer-on
p - pull-off
\ - down strum
Comments