Mayonnaise - Bakit Part 1 Chords & Tabs

 

Bakit Part 1 Chords & Tabs

Mayonnaise Chords & Tabs

Version: 2 Type: Tab 0 ratings
1 star 2 stars 3 stars 4 stars 5 stars
comments

Bakit Part 1 Tab

   
----------------------------------------------------------------------------
			   Bakit Part 1 - Mayonnaise
----------------------------------------------------------------------------

Tuning: Standard Tuning (EADGBe)

Intro:
	   A                               B
e|------------------|    e|-------------------|
B|------------------|    B|--5-9/10\9\7\5-5---|
G|--4-8/9/8\6\4-4---|2x  G|--0-0--0-0-0-0-0---|2x
D|--0-0-0-0-0-0-0---|    D|--2-6-/7\6\4\2-2---|
A|--2-6/7/6\4\2-2---|    A|-------------------|
E|------------------|    E|-------------------|

             C
e|----------------|   Intro: A - 2x
B|--5-9/10/12~----|          B - 2x
G|--0-0--0-0~-----|          A - 2x
D|--2-6-/7/9~-----|          B - 1x
A|----------------|          C - 1x
E|----------------| 
[ Tab from: http://www.guitartabs.cc/tabs/m/mayonnaise/bakit_part_1_tab_ver_2.html ]
Verses:
e|---------------|    |---------------|
B|---------------|    |---------------|
G|--1--2--4--2---| or |--1------------|
D|--2--2--4--2---|    |--2--4--6--4---|
A|--2--x--x--x---|    |--2--4--6--4---|
E|-----2--4--2---|    |-----2--4--2---|

Chorus:
e|----------------------------------|
B|----------------------------------|
G|--6---4---6---4---6---4---2---4---|
D|--6---4---6---4---6---4---2---4---|
A|--4---2---4---2---4---2---0---2---|
E|----------------------------------|

Solo parts:
(nxt tym ko na lng ilalagay dto..)
 - puro C#m lng at A ung play nio..

Bridge:
e|---------------|    |---------------|
B|---------------|    |---------------|
G|--1--2--4--2---| or |--1------------|
D|--2--2--4--2---|    |--2--4--6--4---|
A|--2--x--x--x---|    |--2--4--6--4---|
E|-----2--4--2---|    |-----2--4--2---|

Repeat Chorus:

repeat intro after chorus then end on chord E.

h = hammer-on
p = pull-off
/ = slide up
~ = let it ring
^ = bend string up
Comments