Maylene And The Sons Of Disaster - The Road Home To Panther Creek Chords & Tabs

 

The Road Home To Panther Creek Chords & Tabs

Maylene And The Sons Of Disaster Chords & Tabs

Version: 1 Type: Tab

The Road Home To Panther Creek Tab

URL: http://www.mayleneandthesonsofdisaster.us/

------------------------------
THIS IS JUST THE RYHTHEM GUITAR
------------------------------

::INTRO/VERSE::
Pretty sraight forward, but please listen to the song for the right timing. ALL OPEN D'S 
PALM MUTED.

E|---------|-----------------------------|
B|---------|-----------------------------|
G|---------|-----------------------------|
D|-0-0-0-0-|-0-0-15-14-0-12-10-0-5/7-7-7-|
A|-0-0-0-0-|-0-0-xx-xx-0-xx-xx-0-x/x-x-x-|
D|-0-0-0-0-|-0-0-13-12-0-10-8--0-3/5-5-5-|

::PRE-CHORUS?::
Repeat this twice, listen to the song for the write timing and feel.

E|---------------------------|
B|---------------------------|
G|---------------------------|
D|-8-8-8--7-7-7-3-3-3--2-2-2-|
A|-8-8-8--7-7-7-3-3-3--2-2-2-|
D|-8-8-8--7-7-7-3-3-3--2-2-2-|

::CHORUS?::
It's very important that you don't play the "0" after the harmonics on the D string, as 
won't sound right. The first open D isn't muted, while the rest are chugged palm muted. 
to the song for the write timing, and to hear what I mean about the chugging palm mutes.
[ Tab from: http://www.guitartabs.cc/tabs/m/maylene_and_the_sons_of_disaster/the_road_home_to_panther_creek_tab.html ]
E|------------------------------------------------------|
B|------------------------------------------------------|
G|-7-7-7-5----------------------------------------------|
D|-x-x-x-x-0-5-5-5-3-0--0-0-0--0-0-0--0-0-0--0-0-0--0--0|
A|-5-5-5-3-0-5-5-5-3-0--0-0-0--0-0-0--0-0-0--0-0-0--0--0|
D|-----------5-5-5-3-0--0-0-0--0-0-0--0-0-0--0-0-0--0--0|

::CHORUS? ENDING::
Listen to the song to get it right.

E|------------------------------------|
B|------------------------------------|
G|-7-7-7-5----------------------------|
D|-x-x-x-x-0-5-5-5-3-----------6-5-3-0|
A|-5-5-5-3-0-5-5-5-3-----------6-5-3-0|
D|-----------------------------6-5-3-0|

::VERSE TWO?::
All of this is palm muted, apart from the third "chug" and the "6-5-3-0" bit. You do 
twice, then you move on to the next part. The last section is ALL Palm muted, except for 
"6-5-3-0". Repeat the last section four times. Listen to the song for the right timing on everything!

E|-----------------------------------------------------|---------------------|
B|-----------------------------------------------------|---------------------|
G|-----------------------------------------------------|---------------------|
D|3-0--0-3-0--0-3-0---3-0---3-0--0-3-0--0-3-0--6-5-3-0-|006060060600-6-5-3-0-|
A|3-0--0-3-0--0-3-0---3-0---3-0--0-3-0--0-3-0--6-5-3-0-|006060060600-6-5-3-0-|
D|3-0--0-3-0--0-3-0---3-0---3-0--0-3-0--0-3-0--6-5-3-0-|006060060600-6-5-3-0-|

::OUTRO::
The last bit's palm muted. Listen to the song, it's easy enough to figure out.

E|---------|---------------|
B|---------|---------------|
G|---------|---------------|
D|-6-5-3-0-|-0-0-3-0--0-3-0|
A|-6-5-3-0-|-0-0-3-0--0-3-0|
D|-6-5-3-0-|-0-0-3-0--0-3-0|