Maylene And The Sons Of Disaster - Just Wanted To Make Mother Proud Chords & Tabs

 

Just Wanted To Make Mother Proud Chords & Tabs

Maylene And The Sons Of Disaster Chords & Tabs

Version: 1 Type: Tab

Just Wanted To Make Mother Proud Tab

e-------------------------------------------------------------------------|
B---------------------3-----------------------3---------------------------|
G---------------0--------0-----0--------0--------0------------------------|
D------------2-----2--------2--------0-----0------------------------------|
A---0--2--3-----------------------2---------------------------------------|
D---------------------------------------------------3b-0~-----------------|


b - bend
~ - let ring

there's a banjo playing in the background, i didn't tab that part, and there's also 
guitar that does a fill right after the solo that goes a little like this:


e----------------------|
B----------------------|
G----------------------|
D-------------0~-------|
A---3p2p0--------------|
D----------3-----------|


p - pulloff
~ - let ring

if you have any questions or comments, e-mail me @ nharr@bellsouth.net
[ Tab from: http://www.guitartabs.cc/tabs/m/maylene_and_the_sons_of_disaster/just_wanted_to_make_mother_proud_tab.html ]