Mayhem - Pure Fucking Armageddon Chords & Tabs

 

Pure Fucking Armageddon Chords & Tabs

Mayhem Chords & Tabs

Version: 1 Type: Tab 0 ratings
1 star 2 stars 3 stars 4 stars 5 stars
comments

Pure Fucking Armageddon Tab

   
  Mayhem - Pure Fucking Armageddon
   From the Album Deathcrush
    1993 DSP                          
                                  
Transcribed by Black Metaller (blackmetaller666@hotmail.com)

Tuning: C


Riff A
|-------------------------------|
|-------------------------------|
|-------------------------------|
|--222222222222222222222--------|
|--222222222222222222222--------|
|--000000000000000000000--------|

Note: the beginning varies from each Mayhem release, 
this is it for Deathcrush, along with a bunch of indicipherable 
high tremolo stuff

Riff B
|-------------------------------|
|-------------------------------|
|-------------------------------|
|-------------------------------|
|---------4-----5-----4-------8-|
|-0-0-0-0-2-0-0-3-0-0-2-0-0-0-6-|


[ Tab from: http://www.guitartabs.cc/tabs/m/mayhem/pure_fucking_armageddon_tab.html ]
Riff C
|-------------|
|-------------|
|-------------|
|-------------|
|-------8888--|
|--0000-------|


 Riff D 
|--------------------------------|
|--------------------------------|
|--------------------------------|
|--------------------------------|
|----------4---5-----------------|
|--0-0-0-0-2-0-3-0---------------|



Riff E
|---------|
|---------|
|---------|
|---------|
|--2~-----|
|--0~-----|

Riff F
|------------------|
|------------------|
|------------------|
|------------------|
|--2~-----4~-------|
|--0~-----2~-------|

Order:

Riff A x1
Riff B x10
Riff C x16
Riff D x8
Riff E x1
Riff C x16
Riff D x14
Riff F x1
Riff D x16
Riff F x1
Riff D x4
Riff E x1
Riff C x4
Comments