Mayhem - Life Eternal Chords & Tabs

 

Life Eternal Chords & Tabs

Mayhem Chords & Tabs

Version: 1 Type: Tab 0 ratings
1 star 2 stars 3 stars 4 stars 5 stars
comments

Life Eternal Tab

   
Mayhem
Life Eternal
from De Mysteriis Dom Sathanas
(tabbed by mysteris, corrected by Lord Dying)

 RIFF 1 (Guitar 1)
|-------------------------------------------------------| Play 4 Times
|-------------------------------------------------------|
|-------------------------------------------------------|
|-77777777-66666666-77777777-88888888-------------------|
|-77777777-66666666-77777777-88888888-------------------|
|-55555555-44444444-55555555-66666666-------------------|

(Guitar 2 Riff)

NOT AVAILABLE YET!!!



 RIFF 2 (Everything stops except guitar 1)
|-------------------------------------------------------|
|-------------------------------------------------------| 
|------4-----4-----4-----4-----5------4-----------------|
|----2-----2-----2-----2-----2------2-----3-3-3---------|
|--0-----0-----0-----0-----0------0-------1-1-1---------|
|-------------------------------------------------------|

Then comes bass, drums and second guitar in.

 RIFF 2
 Gtr. 1                                                     Play 32 Times
                                                             4Times = No Vocals
                                                             4Times = Verse 1
                                                             8Times = Bass Riff and No Vox
|-------------------------------------------------------|    4Times = Verse 2                                                             4Times = Verse 2
|-------------------------------------------------------|    4Times = Bass Riff and No Vox
|------4-----4-----4-----4-----5------4-----------------|    8Times = Bass Riff and Guitar Solo
|----2-----2-----2-----2-----2------2-----3-3-3---------|
|--0-----0-----0-----0-----0------0-------1-1-1---------|
|-------------------------------------------------------|
|                                                       | 
| Gtr. 2                                                | 
|-------------------------------------------------------|
|-------------------------------------------------------|
|-------------------------------------------------------|
|-------------------------------------------------------|
|-7---7---7---7---7---7-----8--8--8---------------------|
|-5---5---5---5---5---5-----6--6--6---------------------|

[ Tab from: http://www.guitartabs.cc/tabs/m/mayhem/life_eternal_tab.html ]
 RIFF 2b
 Played by BASS somewhere in the middle of those verses
|-------------------------------------------------------|
|-------------------------------------------------------|
|-------------9---7-------------------------------------|
|---------7-----------10---8-----8----------------------|
|-----7------------------------8------------------------|
|-5-----------------------------------------------------|

 RIFF 2 played during Solo


 RIFF 3 (listen to the album for correct picking rhythm)
|-------------------------------------------------------| Play 8 Times
|-------------------------------------------------------|
|-------------------------------------------------------|
|-------------------------------------------------------|
|----6\5/6---6\5/6---6\5/6---6-6---5-5------------------|
|--0-4\3/4-0-4\3/4-0-4\3/4-0-4-4-0-3-3------------------|


Riff 4 (where it stops just guitars and cymbals)

PLAY FAST! h= hammer ons                      
                                                1st end     2nd ending
                                                             h   h   h
G|--------------------------------------------|---------|--h---^--5^7--^--|
D|---h-h---h-h---h-h---h-h---h-h---h-h---h-h--|--h-h----|--^--5-7-----5-7-|
A|---^-^6--^-^6--^-^6--^-^6--^-^6--^-^6--^-^6-|--^-^5---|-5-7-------------|
E|--0-4---0-4---0-4---0-4---0-4---0-4---0-4---|-0-3-----|-----------------|

RIFF 2b (With Guitar 1 and Bass) Guitar 2 plays Riff 2
  A5                       B#
|-------------------------------------------------------|
|-------------------------------------------------------|
|-------------9---7-------------------------------------|
|---------7-----------10---8-----8----------------------|
|-----7------------------------8------------------------|
|-5-----------------------------------------------------|


Riff 5 (guitar 1 plays through alone 1st then the rest kick in)
listen for ryhthym


|---------------------------------------------------------------------| Play 4 Times
|---------------------------------------------------------------------|
|--------555555----------------------555555---------------------------|
|-222222-333333-22222---------222222-333333-222222--------------------|
|-000000--------00000-666666--000000--------000000-5555\6666----------|
|---------------------444444-----------------------3333\4444----------|


Back to Riff 1 but much faster!!! then end on E
Comments