Mayhem - Funeral Fog Chords & Tabs

 

Funeral Fog Chords & Tabs

Mayhem Chords & Tabs

Version: 1 Type: Bass Tab 0 ratings
1 star 2 stars 3 stars 4 stars 5 stars
comments

Funeral Fog Bass Tab

#----------------------------------PLEASE NOTE---------------------------------#
#This file is the author's own work and represents their interpretation of the #
#song. You may only use this file for private study, scholarship, or research. #
#------------------------------------------------------------------------------#

FUNERAL FOG by MAYHEM (Bass)
from the album "De Mysteriis Dom Sathanas" (1994)
tabbed by the_morbid_destroyer@morbid.co.uk

Intro part 1 (x4)
G|-----------------|-------------------------|
D|-----------------|-------------------------|
A|-----------------|-11-11-11-11-10-10-10-10-|
E|-5-5-5-5-9-9-9-9-|-------------------------|

G|-----------------|---------------------|
D|-----------------|---------------------|
A|-----------------|-10-10-10-10-9-9-9-9-|
E|-5-5-5-5-8-8-8-8-|---------------------|

Intro part 2 (x4)
G|---------------------------------|
D|---------------------------------|
A|-----------------5-5-5-5---------|
E|-3-3-3-3-6-6-6-6---------6-6-6-6-|

G|---------------------------------|
D|---------------------------------|
A|-----------------3-3-3-3---------|
E|-1-1-1-1-5-5-5-5---------4-4-4-4-|

Intro part 3 (x8)
G|-------------|
D|-------------|
A|---------5-4-|
E|-3-3-3-3-----|

Intro part 4 (x4)
G|---------------------------------|
D|---------------------------------|
A|---------5-5-------------5-5-6-6-|
E|-3-3-6-6-----6-6-3-3-6-6---------|
[ Tab from: http://www.guitartabs.cc/tabs/m/mayhem/funeral_fog_btab.html ]
G|---------------------------------|
D|---------------------------------|
A|---------3-3-------------3-3-5-5-|
E|-1-1-5-5-----4-4-1-1-5-5---------|

Guitar solo (no bass)

Verse (x22)
x2 without vocals, x8 with vocals, x4 without vocals, x8 with vocals
G|-----------------|
D|-----------------|
A|-----2-1-0-0-----|
E|-0-0---------1-1-|

Bridge (x4)
G|-------------------|-----------------------|
D|-------------------|-----------------------|
A|-----7-7-10-10-7-7-|-8-8-11-11-10-10-11-11-|
E|-0-0---------------|-----------------------|

G|-------------------|-------------------|
D|-------------------|-------------------|
A|-----7-7-10-10-7-7-|-------9-9-----7-7-|
E|-0-0---------------|-10-10-----8-8-----|

Chorus (x10)
x2 with vocals, x2 without vocals, x2 with lead guitar no vocals,
x2 with vocals, x2 without vocals
G|-------------|-------------|-----------------|-----------------|
D|-------------|-------------|-----------------|-----------------|
A|-----------3-|-------------|-----------------|-----------------|
E|-0-0-0-0-0---|-0-0-0-0-0-3-|-0-0-0-0-0-0-0-0-|-0-0-1-1-1-1-1-1-|

G|-------------|-------------|-----------------|-----------------|
D|-------------|-------------|-----------------|-----------------|
A|-----------5-|-------------|-----------------|-----------------|
E|-2-2-2-2-2---|-2-2-2-2-2-5-|-2-2-2-2-2-2-2-2-|-2-2-1-1-1-1-1-1-|

Ending (x8)
G|-----------|
D|-----------|
A|---2-1-0---|
E|-0-------1-|
Comments