Mayer Peter - Moonlight Over Paris Chords & Tabs

 

Moonlight Over Paris Chords & Tabs

Mayer Peter Chords & Tabs

Version: 1 Type: Tab 1 rating
1 star 2 stars 3 stars 4 stars 5 stars
comments

Moonlight Over Paris Tab

   
##################################################################################
# This file is the author's own work and represents their interpretation of the  #
# song. You may only use this file for private study, scholarship, or research.  #
##################################################################################

MOONLIGHT OVER PARIS by PETER MAYER

Guitar transcription by Nathan Gilera Hayag, BSRT, RRT

Comments, suggestions, corrections & violent reactions...
E-mail me at nathanhayag_rrt@yahoo.com

STANDARD TUNING WITH CAPO ON 4th FRET
(All chords relative to capo)
[ Tab from: http://www.guitartabs.cc/tabs/m/mayer_peter/moonlight_over_paris_tab.html ]
CHORDS : G/D  - 3x0233   E/CM  - 030010   D    - xx0232   Em9 - 022030
         C9   - x32030   D5    - xx0230   BbM7 - x13231   Dm7 - xx0211
         C    - x32010   C9/G  - x32033   D5~9 - xx023x   Am7 - x02010
         Bm7  - x24230   Em7/G - 020033   B    - x202xx   G   - 3x0033
         CM~9 - x3003x
         
INTRO :
riff 1                           riff 2
 G/D            E/CM D            G/D         E/CM D
--------------*(3)-----------     ----*3--*3---0-------*(3)-
-----0-----0----1----0---(3)-     -----0---0---1---0----(3)-
----(2)-2-(2)---0----0--0-2-- and -------2-----0---0---0-2--
---0----------0-0-0-------0--     ---0-------0---0---0---0--
----------------3------------     -------------3------------
-3-------------(0)-----------     -3----------(0)-----------
*** Both riffs are essential to the song. Interchange them so you'll
    look like you know what you're doing! And if possible, put lots 
    of (*) when you play. It sounds better that way.

VERSE 1
CHORUS 
DO INTRO
VERSE 2

CHORUS

INSTRUMENTAL : 
do verse chords  *** You can email me for the adlib.

CHORUS

CM~9     D5~9
Oh--     Oh--

CHORUS

OUTRO : 
do intro riff, then :
  Am7       Em9      D5~9     C        B         Am7         D   G
----------------------------------------------------------------(3-
-)1-0-----------3--------3--------1-------------)0h1-0----------)3-
-(0---0-------0---0----2---0----0---0------2----(0-----0----(0--(0-
-)2-----2-----0------0-------------------0---2--)2-------2--)0--)0-
-(0---------------------------3--------2--------(0--------------(x-
------------0---------------------------------------------------)3-



ANIMO LA SALLE!
Comments