Mayer John - Your Body Is A Wonderland Chords & Tabs

 

Your Body Is A Wonderland Chords & Tabs

Mayer John Chords & Tabs

Version: 3 Type: Tab 6 ratings
1 star 2 stars 3 stars 4 stars 5 stars
comments

Your Body Is A Wonderland Tab

   
John Mayer
Your Body Is A Wonderland     / slide
Listen to song to know how long you play parts.

intro
e|-----------------------------------------|
B|-----------------------------------------|
G|---10---10---10---10---10---10---10---10-|repeat as necessary
D|---10---10---10---10---10---10---10---10-|
A|-8------8--------------------------------|
D|-----------10-----10-8------8--10-----10-|

Pre chorus
e|----------------------------------------|
B|------10---8----8----------10---8----8--|
G|------10---10---10---------10---10---10-|repeat as necessary
D|----------------------------------------|
A|----------------------------------------|
D|-0-8-----8----8----8-0-10----10---10----|
 
Pre chorus
e|-------------------------------------|
B|------3---3---5---5---6---6---8---8--|
G|------3---3---5---5---7---7---10--10-|
D|-------------------------------------|
A|-------------------------------------|
D|--0-5-----5-7-----7-8-----8-10----10-|
[ Tab from: http://www.guitartabs.cc/tabs/m/mayer_john/your_body_is_a_wonderland_tab_ver_3.html ]
Chorus
E|-----------------------------------------|
B|---10---10---10---10---10---10---10---10-|
G|---10---10---10---10---10---10---10---10-|reapeat as necessary
D|-----------------------------------------|
A|-8------8--------------------------------|
D|----------10------10-8------8-10------10-|

Before solo   I can’t figure out if John plays this or how to play it
e|---------|pull off slowly
B|---------|
G|-9p7—9p7-|play till solo
D|---------|
A|---------|
D|---------|

Solo
e|-12-----------------------------------12----------10-----|
B|-----13--8/10--8--6------6/8--10-8--------13--10------12-|
G|-12-----------------------------------12----------10-----|
D|-----14--8/10--8--7------7/9--10-9--------14--10------12-|
A|---------------------------------------------------------|
D|---------------------------------------------------------|

e|-12-----------------------------------12----------15--12-|
B|-----13--8/10--8--6------6/8--10-8--------13--10---------|
G|-12-----------------------------------12----------16--12-|
D|-----14--8/10--8--7------7/9--10-9--------14--10---------|
A|---------------------------------------------------------|
D|---------------------------------------------------------|

After solo
e|---|
B|-6-|
G|---|repeat as necessary 
D|-3-|
A|---|
D|---|
After this play chorus again




Comments