Mayer John - Your Body Is A Wonderland Chords & Tabs

 

Your Body Is A Wonderland Chords & Tabs

Mayer John Chords & Tabs

Version: 1 Type: Tab 2 ratings
1 star 2 stars 3 stars 4 stars 5 stars
comments

Your Body Is A Wonderland Tab

e-------------------------------------------------------
B-----6-*-6--------6-*-6--------6-*-6-------6-*-6-------
G-----5-*-5--------5-*-5--------5-*-5-------5-*-5-------
D--/3-----(3)-------------------------------------------
A---------------3-----(3)----------------3-----(3)------
E-----------------------------6----(6)------------------...verse
Chorus
e---5-----3----  ------------------------------------------
B---6-----6----  ----6--6-------6--6-------6-------6-------
G---5-----5----  ----5--5-------5--5-------5-------5-------
D-0-0---0-0----  ------------------------------------------
A--------------  ------------------------------------------
E--------------  --3-----3------5------5------6------6---6-


thats pretty much it....thanks!

any problems e-mail me collierboy01@hotmail.com
[ Tab from: http://www.guitartabs.cc/tabs/m/mayer_john/your_body_is_a_wonderland_tab.html ]
Comments