Mayer John - Why Georgia Chords & Tabs

 

Why Georgia Chords & Tabs

Mayer John Chords & Tabs

Version: 2 Type: Tab 2 ratings
1 star 2 stars 3 stars 4 stars 5 stars
comments

Why Georgia Tab

   
This is a pretty easy song if you spend like 20 minutes on it. 


Part 1

Intro/Verse

e-------------------------------- 
b-----3----3---------------------  
g-----0h2--0---------0-------0---  
d-----------------4--------4-----  
a-------------0---5------5-------  
e---3----------------------------  
    

Part 2

(album)

e--------------------------------------- -------------------------------------
b--------------------------------------- -------------------------------------
g-----4-----2p0------2p0----2-----2h4--- -----4----2p0-2----2p0----2-----2h4--
d-----2-----2---2----2p-----2--2--2----- -----2----2p0-2----2p0----2--2--2----
a---3-----3--------3------3------------- ---3----3--------3------3------------
e--------------------------------------- -------------------------------------

He hits 3 on the b string a lot.. The chords are (x3243x) and (x3223x). The riff 
is not exact but live, he plays it differently everytime. 


Part 3

"I wonder sometimes.." 

a)                   b)
[ Tab from: http://www.guitartabs.cc/tabs/m/mayer_john/why_georgia_tab_ver_2.html ]
e---0---0---0---0--- ---0---0---0------- 
b---3---3---3---3--- ---3---3---3---3--- 
g---0---2---2---0--- ---0---2---2---2--- 
d---2---0---0---2--- ---2---0---0---2--- 
a---2---x---x---3--- ---2---x---x---0--- 
e---0---2---3---x--- ---0---2---3------- 

(3x0230) is often played this way (3x0032)
On the album, he might be using (3x0210)/(3x0200).  


Part 4

Chorus 

e-----------2------------0------------2--- --------------------------- 
b---3---3---3----3---3---3----3---3---3--- ---1---1-------------------
g---2---2---0----2---2---0----2---2---0--- ---0---0------------------- 
d---0---2---0----0---2---2----0---2---0--- ---3---2--(back to verse)--
a-------0---x--------0---2--------0---x--- ---x---3------------------- 
e-----------3------------0------------3--- ---1----------------------- 


Part 5

e--------------- -------------------------- ---3---3---0---3---------
b---3---3---3--- -------------------------- ---3---3---3---3---------
g---0---0---0--- -------5---7---5---------- ---0---0---0---0---------
d---5---4---5--- ---5---3---5---3---(x2)--- ---0---x---4---x---(x2)--
a---5---5---5--- ---3---1---3---1---------- ---x---3---5---3---------
e---3---3---3--- ---1---------------------- ---3---------------------


Part 6

"When I say I've got it down"

e---7---5---x---x---
b---8---5---3---1---
g---7---7---3---0---
d---9---7---1---3---
a---7---5---3---x---
e---0---x---x---1---
Comments