Mayer John - St Patricks Day Chords & Tabs

 

St Patricks Day Chords & Tabs

Mayer John Chords & Tabs

Version: 1 Type: Tab 1 rating
1 star 2 stars 3 stars 4 stars 5 stars
comments

St Patricks Day Tab

Title: St Patrick's Day
Artist: John Mayer
Album: Room For Squares



Intro

e---0---
b---7---
g---8---
d---6---
a---7---
e---0---


Part 1

Verse 

(album)

e---0-----------0-----7---7-------5--- 
b---7---7---7---5---5-5---5---5---5--- 
g---8---8---9---6---6-6---5---4---4--- 
d---6---6---9---6---6-6---5---4---4--- 
a---7---x---x---x---------x---x---x--- 
e---0---8---9---6---5-5---5---4---3--- 

(live)

e---0-----------------0-----7---7----------- 
b---7---7---7--9--7---5---5-5---5---5---5--- 
g---8---8---9--9--9---6---6-6---5---4---4--- 
d---6---6---9--9--9---6---6-6---5---4---4--- 
a---7---x---x--x--x---x---------x---x---x--- 
e---0---8---9--9--9---6---5-5---5---4---3--- 


Part 2

"Who knows what will be.."

e-------0------------- -------0----------- 
b---3---5---2---2-0--- ---3---5---2---3--- 
g---4---6---2---2-2--- ---4---6---2---2--- 
d---4---6---0---0-0--- ---4---6---0---0--- 
a---x---x---x---x-x--- ---x---x---x---x--- 
e---4---5---2---3-3--- ---4---5---2---3--- 

(3x023x) is (3x020x) on the album.


Part 3 

Chorus 

(album)
[ Tab from: http://www.guitartabs.cc/tabs/m/mayer_john/st_patricks_day_tab.html ]
e---------------------------------------- 
b--10----9---12---10----9------------9--- 
g--11---11---11---11---10---10--11--10--- 
d---9----9----9----9----9----9---9---x--- 
a---7----7----x----x----x----x---x---8--- 
e---0----0---11---10----9----9--11------- 

(live)

e---------------------------------------
b--10----9---12---10----9-----------9---
g--11---11---11---11---11--10--11--10--- 
d---9----9----9----9----9---9---9---x--- 
a---7----7----x----x----x---x---x---8--- 
e---0----0---11---10----9---9--11---x--- 

(x8x109x) doesn't sound very good after (11x911xx) but it's what I saw on the webcast. 
I still play (13.x.11.13.x.x)


Part 4

"No one wants to be alone at Christmas time.."

e---9---(9)---7---(7)---0--- 
b--10----9----8----7----0--- 
g---9----9----7----7----2--- 
d--11----9----9----7----2--- 
a---9---11----7----9----0--- 
e---------------------------


Part 5

"And we'll both be safe.."

e---9---9---0---0---0---
b--10---9---0---0---7---
g---9---9---6---8---8---
d--11---9---7---9---6---
a---9--11---x---x---7---
e-----------5---7---0---


Part 6

"We should take a ride tonight.."

e---7---5---5---------7---5---5---
b---5---5---3---3-3---5---5---3---
g---5---5---0---4-4---5---5---0---
d---5---4---4---3-3---5---4---4---
a---x---5---x---x-x---x---5---x---
e---5---x---3---4-4---5---x---3---

(3x4035) is sometimes (3x4033)


Part 7

"Everybody.." 

e---5----0----0----0---
b---8----3----8----8---
g---7----6----0---11---
d---5----5---10---12---

and that's it
Comments