Mayer John - No Such Thing Chords & Tabs

 

No Such Thing Chords & Tabs

Mayer John Chords & Tabs

Version: 2 Type: Tab 2 ratings
1 star 2 stars 3 stars 4 stars 5 stars
comments

No Such Thing Tab

##################################################################################
# This file is the author's own work and represents their interpretation of the  #
# song. You may only use this file for private study, scholarship, or research.  #
##################################################################################

"No Such Thing", by John Mayer, from the album 'Room For Squares'
Tabulated by : Ng Oon-Ee (ngoonee@hotmail.com)
Sourced from : various other tabs, notably Scott Fisher/Catherine Gagna (http://www3.sympatico.ca/g403z/nosuch.txt), Shannon Morris, and David Sheldon (http://www.guitartabs.cc/fetchurl.php?filename=/m/mayer_john/no_such_thing.tab)




Intro:
 _____2x_________  ______2x________
{                }{                }
-----------------|-----------------|
-----7-----7---7-|-----------------|
-----8-----8---8-|-----9-----9---9-| (repeat)
-----6-----6---6-|-----6-----6---6-|
-----7-----7---7-|-----7-----7---7-|
-0-0---0-0---0---|-0-0---0-0---0---|




Verse:

-----------------|-----------------|
-----7-----7---7-|-----7-----7---7-|
-----8-----8---8-|-----8-----8---8-|
-----6-----6---6-|-----6-----6---6-|
-----7-----7---7-|-----7-----7---7-|
-0-0---0-0---0---|-0-0---0-0---0---|




-----4-----4---4-|-----4-----4---4-|
-----5-----5---5-|-----5-----5---5-|
-----6-----6---6-|-----6-----6---6-|
-----7-----7---7-|-----7-----7---7-|
-0-0---0-0---0---|-0-0---0-0---0---|
-----------------|-----------------|


-----------------|-----------------|
-----7-----7---7-|-----7-----7---7-|
-----4-----4---4-|-----4-----4---4-|
-----6-----6---6-|-----6-----6---6-|
-4-4---4-4---4---|-4-4---4-4---4---|
-----------------|-----------------|


-----------------|-----------------|
-3---------------|-3---------------|
-0---------------|-0---------------|
-0--(strum)------|-0--(strum)------|
-2---------------|-2---------------|
-0---------------|-0---------------|


-----------------|-----------------|
-----7-----7---7-|-----7-----7---7-|
-----8-----8---8-|-----8-----8---8-|
-----6-----6---6-|-----6-----6---6-|
-----7-----7---7-|-----7-----7---7-|
-0-0---0-0---0---|-0-0---0-0---0---|


-----4-----4---4-|-----4-----4---4-|
-----5-----5---5-|-----5-----5---5-|
-----6-----6---6-|-----6-----6---6-|
-----7-----7---7-|-----7-----7---7-|
-0-0---0-0---0---|-0-0---0-0---0---|
-----------------|-----------------|


-----------------|-----------------|
-----7-----7---7-|-----7-----7---7-|
-----4-----4---4-|-----4-----4---4-|
-----6-----6---6-|-----6-----6---6-|
-4-4---4-4---4---|-4-4---4-4---4---|
-----------------|-----------------|


[ Tab from: http://www.guitartabs.cc/tabs/m/mayer_john/no_such_thing_tab_ver_2.html ]
-0---------------|-0---------------|
-2---------------|-2---------------|
-3---------------|-3---------------|
-4--(strum)------|-4--(strum)------|
-4---------------|-4---------------|
-2---------------|-2---------------|



Pre-chorus

-0---0---0----0--|-0---0---0----0--|-----------------|
-0---0---0----9--|-0---0---0----9--|-----7-----7---7-|
-4---6---9----x--|-4---6---9----x--|-----8-----8---8-|
-2---4---7----7--|-2---4---7----7--|-----6-----6---6-|
-0---0---0----0--|-0---0---0----0--|-----7-----7---7-|
-----------------|-----------------|-0-0---0-0---0---|




-0---------------|-0---------0--0--|-----------------|
-2---------------|-2---------2--2--|-7---------------|
-3---------------|-2---------2--2--|-8---------------|
-4--(strum)------|-2-(strum)-2--2--|-6---------------|
-4---------------|-0---------0--0--|-7---------------|
-2---------------|-----------4--2--|-0---------------|




Chorus:

-----5-----5-----|-----------------|
-----5-----7---9-|-9---------------|
-----5-----5---8-|-8---------------|
-----5-----7---6-|-6-(strum)-------|
-----7-5-5-5---7-|-7---------------|
-5-5-5-----------|-----------------|



-----5-----5-----|-----------------|
-----5-----7---9-|-9---------------|
-----5-----5---8-|-8---------------|
-----5-----7---6-|-6-(strum)-------|
-----7-5-5-5---7-|-7---------------|
-5-5-5-----------|-----------------|



-----5-----5-----|-----------------|
-----5-----7---9-|-9---------------|
-----5-----5---8-|-8---------------|
-----5-----7---6-|-6-(strum)-------|
-----7-5-5-5---7-|-7---------------|
-5-5-5-----------|-----------------|


-----5-----5-----|-----------------|
-----5-----7---9-|-9---------------|
-----5-----5---8-|-8---------------|
-----5-----7---6-|-6-(strum)-------|
-----7-5-5-5---7-|-7---------------|
-5-5-5-----------|-----------------|



Bridge:
                   ______3x________
                  {                }
-0---------------|-0-0--0----------|
-0---------------|-0-0--0----------|
-2---------------|-6-6--2----------|
-3-(strum)-------|-7-7--3----------|
-3---------------|-7-7--3----------|
-1---------------|-5-5--1----------|
                       


-0-0--0----------|
-0-0--1----------|
-6-6--2----------|
-7-7--3----------|
-7-7--x----------|
-5-5--3----------|



 ______2x________
{                }

--0---0---0---0--|-----------------|
--0---0---0---0--|---7-------------|
--9---8---6---8--|---8-------------|
-11---9---7---9--|---6-(strum)-----|
--0---0---0---0--|---7-------------|
-----------------|-0---------------|



-0---------------|-0---------0--0--|
-2---------------|-2---------2--2--|
-3---------------|-2---------2--2--|
-4--(pick)-------|-2-(pick)--2--2--|
-4---------------|-0---------0--0--|
-2---------------|-----------4--2--|


Song order:-
Intro
  Verse 1
    Pre-chorus
      Chorus
  Verse 2 (in brackets)
    Pre-chorus
      Chorus
    Bridge
    Solo
      Chorus
      Chorus 2
Comments