Mayer John - No Such Thing Chords & Tabs

 

No Such Thing Chords & Tabs

Mayer John Chords & Tabs

Version: 1 Type: Tab 2 ratings
1 star 2 stars 3 stars 4 stars 5 stars
comments

No Such Thing Tab

   
Author/Artist: John Mayer
Title: No Such Thing
Album: Room For Squares
Transcribed by: David Sheldon
Email: XLEntSk8ir@aol.com
Tuning: Standard

Intro
  4x  then 1x
--------|-----|
-7---7--|--7--|
-8---9--|--8--|
-6---6--|--6--|
-7---7--|--7--|
--------|-----|

Verse
Part 1           Part 2
----------------|--------------|
-7--------------|--7-----------|
-8--5--6--6--3--|--8--5--6--3--|
-6--6--7--6--4--|--6--6--7--4--|
-7--6--7--4--4--|--7--6--7--4--|
----4--5-----2--|-----4--5--2--|
    G# A  D  F#       G# A  F#

Prechorus
-0-----0-----0-----0-----0-----0-----0-----0----------|
-0-----0-----0-----0-----0-----0-----0-----9-------7--|
-4-----6-----9-----4-----4-----6-----9-----6-------8--|
-2-----4-----7-----2-----2-----4-----7-------------6--|
---------------------------------------------------7--|
------------------------------------------------------|
 Asus2 Bsus2 Dsus2                         F#sus2
[ Tab from: http://www.guitartabs.cc/tabs/m/mayer_john/no_such_thing_tab.html ]
Chorus           Alt. Chorus "...I just can't wait till' my ten..."
-0-----5--------|--0--------------|
-0-----6-----7--|--0-----------7--|
-2-----5-----8--|--2-----4-----8--|
-2-----7-----6--|--2-----4-----6--|
-------5-----7--|--------2-----7--|
----------------|-----------------|
 Asus4 F6          Asus4 B

Interlude Part 1 "...I am Invicible..."
  1x       2x      1x
-------|--------|-----|
-1-----|--0-----|--1--|
-2--6--|--2--6--|--2--|
-3--7--|--3--7--|--3--|
-x--7--|--x--7--|--x--|
-1--5--|--1--5--|--3--|

Interlude Part 2 (Musical)
      2x
--0--0--0--0--|-----------|----------------------------------|
--0--0--0--0--|--7--------|----------------------3-----------|
--9--8--7--8--|--8--3--6--|-------------0h2--2/4---4/2--2----|
-11--9--6--9--|--6--4--7--|---------0h2-------------------2--|
--------------|--7--4--7--|-----0h2--------------------------|
--------------|-----2--5--|-0h3------------------------------|

STRUCTURE
Intro
Verse
Prechorus  2x
Chorus
Verse
Prechorus  2x
Chorus
Interlude Pt. 1
Interlude Pt. 2
Chorus
Alt. Chorus
End on x79890

Notes:
1. The Interlude parts were taken from a tab by Scott Fischer, Catherine Gagna, Shannon Morris, and some guy named Alan. All credit for those two parts goes to them.
2. The alt. chorus is a little off, but close.
3. The rythm is kinda hard at first.
4. It's not perect but it sounds pretty close and he plays the song so many different ways you're gonna have to figure out how you want it to sound.
Comments