Mayer John - Neon Chords & Tabs

 

Neon Chords & Tabs

Mayer John Chords & Tabs

Version: 3 Type: Tab 1 rating
1 star 2 stars 3 stars 4 stars 5 stars
comments

Neon Tab

   
#----------------------------------PLEASE NOTE---------------------------------#
#This file is the author's own work and represents their interpretation of the #
#song. You may only use this file for private study, scholarship, or research. #
#------------------------------------------------------------------------------#

                                     NEON
                           As recorded by John Mayer
                       (From the  Album INSIDE WANTS OUT)
 
Transcribed by Kevin Geraghty(ratm139@hotmail.com) 

Tuning - Gtr I Drop C (C A D G B E) 


(PART I)

e---------------------------------------------------------
b----8-------------4--------------4-----------9-------8---
g------10--------3--------------3---3--------8-------7----
d--------------3------5-6-----6-------------8------10-----
a---------------------------------------------------------
c--0---------3---------------5------------8------10-------



(PART II)

e-----------------
b----6----6----4--
g---5----5----3---
d--8----8----6----
a-----------------
c-8----7----6-----


(PART III)
[ Tab from: http://www.guitartabs.cc/tabs/m/mayer_john/neon_tab_ver_3.html ]
e-----------------------------------
b----6---6---4---6---6---4---6---4--
g---5---5---3---5---5---3---5---5---
d--8---8---6---8---8---6---8---6----
a-----------------------------------
c-8---7---6---8---7---5---7---------


(PART IV)

e---------------------   
b----4---6---4----4---    
g---3---5---3----3----    
d--6---8---5--3h5----- (2x)
a---------------------
c-5---7---0-----------


(PART V)

e-------------------------
b----4---6---4---11---9---
g---3---5---3---10---8----
d--6---8---5---10---8-----
a-------------------------
c-5---7---0---10---8------


(PART VI)

e---------------
b---4-4-----4-4-
g---5-5----5-5--
d---6-6---6-----
a---------------
c---------------


(PART VII)

e--------------- ---------------------------
b----6---6---4--- ---6---6---4---6---9---11-
g---5---5---3--- ---5---5---3---5---8---10--
d--8---8---6--- ---8---8---6---8---8---10---
a--------------- ---------------------------
c-8---7---6--- ---8---7---5---7---8---10----


(PART VIII)

e--------------------                 ------------
b----4---6---7----9--                 ------------
g---5---7---8---10--- repeat... then ---11--11/--
d--6---8---9---11----                 ---11--11/--
a--------------------                 ------------
c-5---7---8---10-----                 -------10---


(PART IX)

e-----------------------------------
b-----------------------------------
g-----8---------8--------------8----
d-------------8-------------10------ (repeat)
a------------------(0)--------------
c---0-----0h7-----------0h10--------
Comments