Mayer John - My Stupid Mouth Chords & Tabs

 

My Stupid Mouth Chords & Tabs

Mayer John Chords & Tabs

Version: 2 Type: Tab

My Stupid Mouth Tab

My Stupid Mouth (John Mayer) 

Again, credit to Catherine Gagné for the tab which contained both the live
and album versions of the song. All I did was take out the live parts to 
make it purely an album version tab. This time though I added the background
notes to the intro, which doesnt really sound right without them. Thanks Catherine!


Intro 

e------------------------------ 
b---3---2---3---3---3---2---3-- 
g---2---2---2---2---2---2---2-- 
d---0---x---0---0---0---0---0-- 
a---x---4---x---x---2---x---x-- 
e-----------2---3-------2---3-- 

Background Part to Intro (2nd Guitar)

e----------------------0-----------------------------------------------|
B----------------------------3-----3-------------------------------3---|
G------4-----2------------------2------------------4-----2---0--2------|
D-2s4-----4-------2s4-----4-----------(2s4)---2s4-----4----------------|
A----------------------------------------------------------------------|
E----------------------------------------------------------------------|

Verse 
[ Tab from: http://www.guitartabs.cc/tabs/m/mayer_john/my_stupid_mouth_tab_ver_2.html ]
e------------------------------ --------------------------- 
b---3---2---3---3---3---2---3-- ---3---2---3---3---2---3--- 
g---2---2---2---2---2---2---2-- ---2---2---2---2---2---2--- 
d---0---x---0---0---0---0---0-- ---0---0---0---0---0---0--- 
a---x---4---x---x---2---x---x-- ---2---x---x---2---x---x--- 
e-----------2---3-------2---3-- -------2---3-------2---3--- 

"Oh.. just another social casualty.." 

e---2---------------------------------------------------- 
b---3---5---5---------------3---3---3-----3---3---1---8-- 
g---0---6---7---12--11------0---2---0-----0---2---0---7-- 
d---0---4---7---12--12------0---0---2-----0---0---3---9-- 
a---x---x---x----x---x------x---x---2-----x---x---3---x-- 
e---3---6---7---10--10------3---2---0-(2)-3---2---1---7-- 

Chorus 

e---------------------------2-- -----------------------2--- 
b---3---2---3---3---3---2---3-- ---3---2---3---3---2---3--- 
g---2---2---2---2---2---2---0-- ---2---2---2---2---2---0--- 
d---0---x---0---0---0---0---0-- ---0---0---0---0---0---0--- 
a---x---4---x---x---2---x---x-- ---2---x---x---2---x---x--- 
e-----------2---3-------2---3-- -------2---3-------2---3--- 

" Oh I'm never speaking up again... " 

e---5--- 
b---3--- 
g---3--- 
d---3--- 
a---x--- 
e---3--- 

Last chorus 

e---------------------------2-- ---------------------------2--- 
b---3---2---3---3---3---2---3-- ---3---3---3--(3)--3---2---3--- 
g---2---2---2---2---2---2---0-- ---0---2---0---2---2---2---0--- 
d---0---x---0---0---0---0---0-- ---2---0---0---2---0---0---0--- 
a---x---4---x---x---2---x---x-- ---2---x---x---0---2---x---x--- 
e-----------2---3-------2---3-- ---0---2---3-----------2---3--- 

e-mail me at Calvin2376@aol.com