Mayer John - My Stupid Mouth Chords & Tabs

 

My Stupid Mouth Chords & Tabs

Mayer John Chords & Tabs

Version: 1 Type: Tab 2 ratings
1 star 2 stars 3 stars 4 stars 5 stars
comments

My Stupid Mouth Tab

John Mayer- My stupid mouth

Intro 

e------------------------------ 
b---3---2---2---3---3---2---3-- 
g---2---2---2---2---2---2---2-- 
d---0---x---0---0---0---0---0-- 
a---x---4---x---x---2---x---x-- 
e-----------2---3-------2---3-- 

verse!
---------------------------- --------------------------- 
--3---2---2---3---3---2---3-- ---3---2---3---3---2---3--- 
--2---2---2---2---2---2---2-- ---2---2---2---2---2---2--- 
--0---x---0---0---0---0---0-- ---0---0---0---0---0---0--- 
--x---4---x---x---2---x---x-- ---2---x---x---2---x---x--- 
----------2---3-------2---3-- -------2---3-------2---3--- 

" another social casuality..."
[ Tab from: http://www.guitartabs.cc/tabs/m/mayer_john/my_stupid_mouth_tab.html ]
e---2---------------------------------------------------- 
b---3---5---5---------------3---3---3-----3---3---1---8-- 
g---0---6---7---12--11------0---2---0-----0---2---0---7-- 
d---0---4---7---12--12------0---0---2-----0---0---3---9-- 
a---x---x---x----x---x------x---x---2-----x---x---3---x-- 
e---3---6---7---10--10------3---2---0-(2)-3---2---1---7-- 


Chorus

e---------------------------2-- -----------------------2--- 
b--3---2---2---3---3---2---3-- ---3---2---3---3---2---3--
g--2---2---2---2---2---2---0-- ---2---2---2---2---2---0-- 
d--0---x---0---0---0---0---0-- ---0---0---0---0---0---0-- 
a--x---4---x---x---2---x---x-- ---2---x---x---2---x---x--- 
e----------2---3-------2---3-- -------2---3-------2---3--- 


bout it....
Comments