Mayer John - Love Song For No One Chords & Tabs

 

Love Song For No One Chords & Tabs

Mayer John Chords & Tabs

Version: 1 Type: Tab 0 ratings
1 star 2 stars 3 stars 4 stars 5 stars
comments

Love Song For No One Tab

   
##################################################################################
# This file is the author's own work and represents their interpretation of the  #
# song. You may only use this file for private study, scholarship, or research.  #
##################################################################################

John Mayer
LOVE SONG FOR NO ONE
transcribed by 
Walter Kondratowski (en_masse@juno.com)
Joshua Kondratowski (verbal_dynamite@hotmail.com)

Capo 2

Intro Chords
     G    C   Em   C9
e----3----3----3---3
B----3----1----3---3
G-------------------
D---------2--------2
A---------3----2---3
E----3--------------

Verse 1:
CHORUS
Verse 2
CHORUS

[ Tab from: http://www.guitartabs.cc/tabs/m/mayer_john/love_song_for_no_one_tab.html ]
TAB: (2x through the tab and intro chords)
E---------------------------------------------------------------------------
B---------------------------------------------------------------------------
G-------2---0----1---------------------------------------2---0--------------
D-----2----2----2--------------------------------------2----2---------------
A----0----2----3--------------------------------------0----2----------------
E--------------------------------------------------------------3------------
                I  could have met you in a sandbox        I could have passed you on the sidewalk
               
E------------------------------------------------------------------1--------
B-------------------------------------------------1----------------1--------
G-------2---0----1--------------------------------2-------2----0---2--------
D-----2----2----2---------------------------------2------2----2----3--------
A----0----2----3----------------------------------------0----2-----3--------
E------------------------------------------------------------------1--------
                 I Could I have missed my chance          And watched you walk away?   

Intro chords (Repeat) 

End Tab: repeat 14x
E----------1-2----
B--------3--------
G----------------- 
D----------------- 
A----------------- 
E----------------- 

 Chorus Chords
    G   D   Em  C
E   3   0   0   0
B   3   3   0   1
G   0   2   0   0
D   0   0   2   2
A   0   0   2   3
E   3   2   0   0

 Verse Chords
    G   B   F
E   X   3   10
B   3   3   10
G   4   3   10
D   4   5   12
A   X   5   12
E   3   3   12




Comments