Mayer John - Comfortable Chords & Tabs

 

Comfortable Chords & Tabs

Mayer John Chords & Tabs

Version: 1 Type: Tab 6 ratings
1 star 2 stars 3 stars 4 stars 5 stars
comments

Comfortable Tab

Comfortable (John Mayer) 

I copied this from another Comfortable tab, transcribed by Catherine Gagné
who was nice enough to tab out both the album and live versions, but since
most people want just the album version, I took the album parts from her
other tab and combined them into one, less confusing tab. Thanks Catherine! 

***Capo on 3rd fret***

Intro 

e---0h2-------2p0-------0--2--3--2----------2--2--2p0-------0--2--3 
b---3--------------3----3-------------------3--3--3----3----1------ 
g---2-------2-----------0----------------0------------------0------ 
d---0-----0-------------x-----------------------------------2------ 
a-----------------------1-------------2---------------------0------ 
e------------------------------------------------------------------ 

e---2p0------------------------------------------------------------- 
b---1-----3------------0----------2-----------3----------0-----2---3 
g---2------------------0----------2-----------4---------0------2---4 
d---0------------0-----0------0---2-------2---4--------0----0--2---4 
a------------------------------------------------------------------- 
e-------------3-----3------3-----------3------------0--------------- 

Verse 

e--2---0---2---0---2--------------------------------------------------- 
b--3---3---3---1---1--------0--------2--------3--------0-------2------3 
g--2---0---0---0---2--------0--------2--------4--------0-------2------4 
d--0---2---0---2---0----0---0-----0--2-----2--4----0---0----0--2---2--4 
a------1---2---0------------------------------------------------------- 
e---------------------3---3-----3--------3--------0--0----0------0----- 
                                                 
1:00 min 
[ Tab from: http://www.guitartabs.cc/tabs/m/mayer_john/comfortable_tab.html ]
e------2p0-------------2p0------------2p0------------2------ 
b------3--------------------3---------3--------------1------ 
g-----------2---------------------0--------0-------2----2--- 
d---0-------------2---------------------------------------0- 
a---------------1---1------------2--2---------3--3---------- 
e----------------------------------------------------------- 

"I can't remember..." 

e-----------3-------------------0----------------------------2 
b-----------3----------2-----------2-------------------3--5--- 
g-----------0-------------0-----------0---(x3)-------4-------- 
d------0-------0-------------2---------------------4---------- 
a---------2-------2----0-------------------------------------- 
e---3--------------------------------------------4------------ 

Chorus 

e---2--0--2---2--0--2---3---0---0-- 
b---3--3--3---3--3--3---3---3---2-- 
g---2--2--2---2--2--2---0---2---2-- 
d---0--0--0---0--0--0---0---2---2-- 
a-------------2--2--2---x---0---0-- 
e-----------------------3---------- 



"or so they say.." / "I'm not impressed.." 

e---1---0---0---0---3---0-- 
b---1---1---3---0---3---2-- 
g---0---0---2---1---0---3-- 
d---3---2---0---0---0---2-- 
a-----------2---2---x---x-- 
e-----------x---0---3---3-- 

Interlude 

e---3--2--0----------3------2------ 
b---------------------------------5 
g---------------------------------- 
d---------------------------------- 
a------------------------0--1--3--5 
e--------------0--2--3------------- 

" I loved you... grey sweatpants..." 

e----------------------------------------------------------------- 
b----------0---------2--------3---------0--0------2------3----3--- 
g----------0---------2--------4------------0------2------4----4--- 
d-----0----0------0--2----2---4-------0----0---0--2---2--4----4--- 
a----------------------------------------------------------------- 
e---3----3------3-------3-----------0---------0------0------0----- 

e-------------------------------------------------------0-- 
b-----------0-------2--------3-----------2-------3------2-- 
g-----------0-------2--------4-----------2-------4------2-- 
d-----0-----0----0--2-----2--4-----0h2---2----2--4----2---- 
a--------------------------------0-----0----0-------0------ 
e---3----3-----3--------3----------------------------------

e-mail me at Calvin2376@aol.com
Comments