Mayer John - Comfortable Any Given Thursday Chords & Tabs

 

Comfortable Any Given Thursday Chords & Tabs

Mayer John Chords & Tabs

Version: 1 Type: Tab

Comfortable Any Given Thursday Tab

Title: Comfortable
Artist: John Mayer
Album: Any Given Thursday

Transcribed by Tony Klappa
toncoffee@hotmail.com

intro (capo III)

e|-----------------------------------------------------------------------------------------------2--------0--------|
b|-----0-----------2----------3-------------------0--------2--------3-----------------3p0-----------0--------0-----|
g|---------0----------0----------0-------------------0--------0--------0-------------------0-----------0--------0--|
d|-------------0----------0----------0------------------0--------0--------0-------------------0--------------------|
a|-----------------0----------2-------------0--------------0--------2-----------0----------------2--------0--------|
e|--3--3---------------------------------3-----3--3--------------------------3-----3-------------------------------|

[ Tab from: http://www.guitartabs.cc/tabs/m/mayer_john/comfortable_any_given_thursday_tab.html ]
e|--------------------------------------------------------------------------------------------------------------|
b|--0--------0--------2--------3--------------------------------------------------------------------------------|
g|-----0--------0--------0--------0-----------0--2--0-----------------------------0--2--0-----------------------|
d|--------0--------0--------0--------0--2--4-----------4-----2--4--------0--2--4-----------4-----2--4--------0--|
a|--------------------0--------2--------------------------0--------2--4-----------------------0--------2--4-----|
e|--3-----------------------------------3-----------------------------------3-----------------------------------|


e|-----------------------------------------------------------------------------------------------------------------------|
b|-----------------------------------------------------------------------------0--------0--------2--------3--------------|
g|--------0--2--0-----------------------------------------------------------------0--------0--------0--------------------|
d|--2--4-----------4-----2--4--------0--4-------0----------------0-----0-------------0--------0--------0-----------------|
a|--------------------0--------2--4--------------------4------2-----0-----2----------------------0--------2--------------|
e|--3--------------------------------------------------------------------------3-----------------------------------------|

*Here is the intro from the Any Given Thursday Album, the majority of the song is very similar to 
the other version of comfortable, just with this at the beginning!