Mayer John - Clarity Chords & Tabs

 

Clarity Chords & Tabs

Mayer John Chords & Tabs

Version: 1 Type: Tab 0 ratings
1 star 2 stars 3 stars 4 stars 5 stars
comments

Clarity Tab

Clarity
John Mayer
Tabbed by Dustin



Intro & Verse:
e---------------------------------------------------------------------------------------------
b---------------------------------------------------------------------------------------------
g-------------------------------------------------6---6--x------6-------6----x-----6------
d---4---4--x-------4-------4---x----4----------4---4--x------4-------4----x-----4------
a---2---2--x------ 2-------2---x----2----------5---5--x---5-------5-------5-----------5
E---3---3--x---3------ 3-------3--------3-------------------------------------------------

[ Tab from: http://www.guitartabs.cc/tabs/m/mayer_john/clarity_tab.html ]
Chorus:
e--------------------------------------(5)---------------------------------------------------
b---2-3-2-3-2-3-2-3-2-3---3-----2-3-2-3-2-3-2-3-2-3-2-3-2-3-2-3-----------------
g---2-4-2-4-2-4-2-4-2-4---4-----2-2-2-2-2-2-2-2-2-2-2-2-2-2-2-2-----------------
d---0-0-0-0-0-0-0-0-0-0---0-----2-4-2-4-2-4-2-4-2-4-2-4-2-4-2-4-----------------
a---0-0-0-0-0-0-0-0-0-0--------- 2-2-2-2-2-2-2-2-2-2-2-2-2-2-2-2-----------------
E---3-------------------------2-----2-------------------------------------------------------



Bridge:
e---------------------------------------------------------------------------------------------
b---------------------------------------------------------------------------------------------
g-------------14-------10----10------10-------10----Thrice-----------
d----14------12-------12----10------12-------10-----------------------
a----12------13-------10-----13------10------13-----------------------
E----13---------------11-----11------11------11------------------------

e--------------------------------------------------------------------------------------------
b--------------------------------------------------------------------------------------------
g-----8-------8---------8--------------------------9-------------------------------
d----10-------8--------10-------9----------------7------------------------------
a-----8-------11--------8--------7----------------8------------------------------
E-----9--------9--------9--------8-----------------------------------------------
Comments