Mayday - Jue Jiang Chords & Tabs

 

Jue Jiang Chords & Tabs

Mayday Chords & Tabs

Version: 1 Type: Tab 0 ratings
1 star 2 stars 3 stars 4 stars 5 stars
comments

Jue Jiang Tab

   
seems that nobody has done this yet.. so..

this is the first tab im publishing here.. enjoy

Standard Tuning (E B G D A E)

Intro - played along with the piano

|------------------------|
|------------------------|
|-6-------------3--------|   x4 ( x2 on the 2nd time)
|-6------6------3------4-| 
|-4------6------1------4-|
|--------4-------------2-|

|-----|
|--6--|
|--4--| end intro with this..                                
|--6--|      
|--4--|
|-----|


Verse

|------------------------|
|------------------------|
|-6----------------------| x4 
|-6------6------4------6-|
|-4------6------4------6-|
|--------4------2------4-|

then...

|------------------------|
|------------------------|
|-6----------------------| 
|-6------6------8------4-| 
|-4------6------8------4-|
|--------4------6------2-|

[ Tab from: http://www.guitartabs.cc/tabs/m/mayday/jue_jiang_tab.html ]
Chorus
|---------------------------|
|---------------------------|
|-6-------------------------|
|-6------6------8------4--6-|  
|-4------6------8------4--4-|
|--------4------6------2--4-|


|-----------------------------|
|-----------------------------|
|-6---------------------------|
|-6------6------8------4------|
|-4------6------8------4------|
|--------4------6------2------|

Play into TWICE only..then go on to verse and back to chorus again

Bridge
|------------------------------------------------------------|
|------------------------------------------------------------|
|-6--------------------11------6-----------------------------|
|-6------6------8------11------6------6------8------4------6-|
|-4------6------8------9-------4------6------8------4------6-|
|--------4------6---------------------4------6------2------4-|

not sure bout the bridge part... listen to the song to try and firgure it out incase im wrong...

Then..Chorus x3

End with..
|----|
|----|
|-6/-|
|-6/-|
|-4/-|
|----|
Comments