Maximo Park - Once A Glimpse Chords & Tabs

 

Once A Glimpse Chords & Tabs

Maximo Park Chords & Tabs

Version: 1 Type: Tab 0 ratings
1 star 2 stars 3 stars 4 stars 5 stars
comments

Once A Glimpse Tab

   
-----------------------------------------------------------------------------
			     ONCE, A GLIMPSE - MAXIMO PARK
-----------------------------------------------------------------------------
Tabbed by: Jason Hilton
Email: try.not.to.think@gmail.com			

Tuning: standard
Brilliant song, this, a good album too! THe geordie accent makes it all 
so much cooler!
I think most of the below is roughly correct, give me a shout if its not!


Intro

e|-------------------------------------------------------------------------|
B|-----6-----------------5----------------8----------6---------------------|
G|--7--------------6-6--------------9-9---------7-7------------------------|
D|-------------------------------------------------------------------------|
A|-------------------------------------------------------------------------|
E|-------------------------------------------------------------------------|

Verse

e|-------------------------------------------------------------------------|
B|-------6-------6-------6-8-6---------5-------5-------5----5--------------|
G|--7-7-----7-7-----7-7-----------6-6-----6-6-----6-------6---6------------|
D|-------------------------------------------------------------------------|
A|-------------------------------------------------------------------------|
E|-------------------------------------------------------------------------|

e|-------------------------------------------------------------------------|
B|-------8-------8-------8-10-8--------6--------6--------6---6-------------|
G|--9-9-----9-9-----9-9-----------7-7------7-7-----7--------7---7--------o-|
D|-----------------------------------------------------------------------o-|
A|-------------------------------------------------------------------------|
E|-------------------------------------------------------------------------|
              x4
							   \-----/
							1st, 2nd and 3rd
							times only
The last time thru play this to lead into the chorus	

e|-------------------------------------------------------------------------|
B|-------------------------------------------------------------------------|
G|-------------------------------------------------------------------------|
D|---10-9-8----------------------------------------------------------------|
A|---10-9-8----------------------------------------------------------------|
E|---8--7-6----------------------------------------------------------------|


Chorus 
     A			      C      G			      D#
e|-------------------------------------------------------------------------|
B|-------------------------------------------------------------------------|
G|----------------------------5--5----------------------------8--8---------|
D|---7-7-7-7-7-7-7-7-7-7-7-7--5--5---5-5-5-5-5-5-5-5-5-5-5-5--8--8---------|
A|---7-7-7-7-7-7-7-7-7-7-7-7--3--3---5-5-5-5-5-5-5-5-5-5-5-5--6--6---------|
E|---5-5-5-5-5-5-5-5-5-5-5-5---------3-3-3-3-3-3-3-3-3-3-3-3---------------|

[ Tab from: http://www.guitartabs.cc/tabs/m/maximo_park/once_a_glimpse_tab.html ]
     A#			      F       C
e|-------------------------------------------------------------------------|
B|-------------------------------------------------------------------------|
G|--------------------------10--10-----------------------------------------|
D--8-8-8-8-8-8-8-8-8-8-8-8--10--10--10-10-10-10-10-10-10-10-10-10-10-109-8-|
A|-8-8-8-8-8-8-8-8-8-8-8-8--8---8---10-10-10-10-10-10-10-10-10-10-10-109-8-|
E|-6-6-6-6-6-6-6-6-6-6-6-6----------8--8--8--8--8--8--8--8--8--8--8--8-7-6-|


Verse part X2
Has this riff over it, work out the timing from the song

e|-------------------------------------------------------------------------|
B|---8-10-8-------------8-10-8---------8-10-8---------8-10-8---------------|
G|-----------10---7~------------10-9~----------10-9~----------10-7~--------|
D|-------------------------------------------------------------------------|
A|-------------------------------------------------------------------------|
E|-------------------------------------------------------------------------|

Chorus x2

Bridge

Bass
e|-------------------------------------------------------------------------|
B|-------------------------------------------------------------------------|
G|-------------------------------------------------------------------------|
D|-------------------------------------------------------------------------|
A|-------------------------------------------------------------------------|
E|----5-5---5-5-5---5-5-5---5-5-5--5-7-7--7-7-7--7-9-9-9-9-9---------------|
 
  Guitar (Roughly)
e|----0---------------7--------------0-------------0-----------------------|
B|----5---------------5--------------3-------------2-----------------------|
G|----6---------------6--------------4-------------2-----------------------|
D|-------------------------------------------------------------------------|
A|-------------------------------------------------------------------------|
E|-------------------------------------------------------------------------|
repeats a few times
 
chorus x2
The final chorusy bit (its the same as before only starting on the D
 not the A)

THis bit is played as a lead in after 'i dont think ur gonna get it)
e|-------------------------------------------------------------------------|
B|-------------------------------------------------------------------------|
G|-------------------------------------------------------------------------|
D|---10-10-11-11-----------------------------------------------------------|
A|---10-10-11-11-----------------------------------------------------------|
E|---8--8--9--9------------------------------------------------------------|

---------------------------------------------------------------------------|
---------------------------------------------------------------------------|
-------------------------------------10-10----------------------------13-13|
-12-12-12-12-12-12-12-12-12-12-12-12-10-10-10101010101010101010101010-13-13|
-12-12-12-12-12-12-12-12-12-12-12-12-8--8--10101010101010101010101010-11-11|
-10-10-10-10-10-10-10-10-10-10-10-10-------8-8-8-8-8-8-8-8-8-8-8-8-8-------|

---------------------------------------------------------------------------|
---------------------------------------------------------------------------|
-------------------------------------15-15----------------------------108-8|
-13 13-13-13-13-13-13-13-13-13-13-13-15-15-15151515151515151515151515-108-8|
-13-13-13-13-13-13-13-13-13-13-13-13-13-13-15151515151515151515151515-8-7-6|
-11-11-11-11-11-11-11-11-11-11-11-11-------13131313131313131313131313------|

end


| /  slide up
| \  slide down
| h  hammer-on
| p  pull-off
| ~  vibrato
| +  harmonic
| x  Mute note
============================================================================
Comments