Maximo Park - Graffiti Chords & Tabs

 

Graffiti Chords & Tabs

Maximo Park Chords & Tabs

Version: 1 Type: Bass Tab 0 ratings
1 star 2 stars 3 stars 4 stars 5 stars
comments

Graffiti Bass Tab

   
-------------------------------------------------------------------------------
			    Graffiti - Maximo Park
-------------------------------------------------------------------------------

Tabbed By : imessyou
e-mail: theblochead@hotmail.co.uk

Tuning: standard mate

Intro
G|-----------------|
D|-----------------|
A|-----------------|
E|-7-7-7-7-7-7-7-7-| x7

Verse
G|----------7-9-9-|---------|-----------------|-------|----------------|--------|
D|------7-9-------|---------|-----------------|-------|----------------|--------|
A|----------------|-5-4-3-2-|2-2-2-2-2-2--2-2-|7-5-4--|----------------|--------|
E|-0--0-----------|---------|-----------------|-----5-|5-5-5-5-5-5--5-5|-5-4-2-0|

Verse cont
G|------------------|
D|------------------|
A|------------------|
E|-0-0-0-0-0-0--0-0-| x5

Chorus
"I'll do graffiti if you sing to me in french..."
G|----------------|---------------|---------------|---------------|
D|----------------|---------------|---------------|---------------|
A|-7-7-7-7-7-7-7-7|7-7-7-7-7-7-7-7|---------------|---------------|
E|----------------|---------------|9-9-9-9-9-9-9-9|9-9-9-9-9--9--9| x2

(at this point there are fills but they change each chorus so improvise them yourselves kids!)
G|----------------|---------------|---------------|-------------|
D|-9-9-9-9-9-9-9-9|9-9-9-9-9-9-9-9|7-7-7-7-7-7-7-7|7-7-7-7-7-7-7|
A|----------------|---------------|---------------|-------------|
E|----------------|---------------|---------------|-------------|

G|----------------|---------------|---------------|
D|----------------|---------------|---------------|
A|----------------|---------------|--4-------6----|
E|-7-7-7-7-7-7-7-7|7-7-7-7-7-7-7-7|5---7-5-7------|

Verse
"Well that's enoff!"
G|----------7-9-9-|---------|-----------------|-------|----------------|--------|
D|------7-9-------|---------|-----------------|-------|----------------|--------|
A|----------------|-5-4-3-2-|2-2-2-2-2-2--2-2-|7-5-4--|----------------|--------|
E|-0--0-----------|---------|-----------------|-----5-|5-5-5-5-5-5--5-5|-5-4-2-0|

Verse cont
G|------------------|
D|------------------|
A|------------------|
E|-0-0-0-0-0-0--0-0-| x4
[ Tab from: http://www.guitartabs.cc/tabs/m/maximo_park/graffiti_btab.html ]
Chorus
"I'll do graffiti if you sing to me in french..."
G|----------------|---------------|---------------|---------------|
D|----------------|---------------|---------------|---------------|
A|-7-7-7-7-7-7-7-7|7-7-7-7-7-7-7-7|---------------|---------------|
E|----------------|---------------|9-9-9-9-9-9-9-9|9-9-9-9-9--9--9| x2

(at this point there are fills but they change each chorus so improvise them yourselves kids!)
G|----------------|---------------|---------------|-------------|
D|-9-9-9-9-9-9-9-9|9-9-9-9-9-9-9-9|7-7-7-7-7-7-7-7|7-7-7-7-7-7-7|
A|----------------|---------------|---------------|-------------|
E|----------------|---------------|---------------|-------------|

G|----------------|---------------|---------------|
D|----------------|---------------|---------------|
A|----------------|---------------|--4-------6----|
E|-7-7-7-7-7-7-7-7|7-7-7-7-7-7-7-7|5---7-5-7------|

Bridge
G|---------------|---------------|---------------|---------------|
D|---------------|---------------|---------------|---------------|
A|---------------|---------------|---------------|---------------|
E|0-0-0-0-0-0-0-0|0-0-0-0-0-0-0-0|9-9-9-9-9-9-9-9|9-9-9-9-9-9-9-9| x2

G|-----------|---------|-11----9-9-9------------|
D|-----9-7-6-|----9-7-6|----11-------11-11-11-11|
A|7--7-------|7-7------|------------------------|
E|-----------|---------|------------------------| x2

Chorus
"I'll do graffiti if you sing to me in french..."
G|----------------|---------------|---------------|---------------|
D|----------------|---------------|---------------|---------------|
A|-7-7-7-7-7-7-7-7|7-7-7-7-7-7-7-7|---------------|---------------|
E|----------------|---------------|9-9-9-9-9-9-9-9|9-9-9-9-9--9--9| x2

(at this point there are fills but they change each chorus so improvise them yourselves kids!)
G|----------------|---------------|---------------|-------------|
D|-9-9-9-9-9-9-9-9|9-9-9-9-9-9-9-9|7-7-7-7-7-7-7-7|7-7-7-7-7-7-7|
A|----------------|---------------|---------------|-------------|
E|----------------|---------------|---------------|-------------|

G|----------------|---------------|---------------|
D|----------------|---------------|---------------|
A|----------------|---------------|--4-------6----|
E|-7-7-7-7-7-7-7-7|7-7-7-7-7-7-7-7|5---7-5-7------|

Tabbed by your faithful imessyou for all your indie needs


| /  slide up
| \  slide down
| h  hammer-on
| p  pull-off
| ~  vibrato
| +  harmonic
| x  Mute note
Comments